  0
SECTION
  2
HEADER
  9
$ACADVER
  1
AC1015
  9
$ACADMAINTVER
 70
    20
  9
$DWGCODEPAGE
  3
ANSI_1252
  9
$INSBASE
 10
0.0
 20
0.0
 30
0.0
  9
$EXTMIN
 10
133.7494606133988
 20
91.5636002081435
 30
0.0
  9
$EXTMAX
 10
680.1340348768863
 20
484.7947655642972
 30
0.0
  9
$LIMMIN
 10
0.0
 20
0.0
  9
$LIMMAX
 10
840.0
 20
594.0
  9
$ORTHOMODE
 70
     0
  9
$REGENMODE
 70
     1
  9
$FILLMODE
 70
     1
  9
$QTEXTMODE
 70
     0
  9
$MIRRTEXT
 70
     0
  9
$LTSCALE
 40
2.0
  9
$ATTMODE
 70
     1
  9
$TEXTSIZE
 40
0.2
  9
$TRACEWID
 40
0.05
  9
$TEXTSTYLE
  7
Standard
  9
$CLAYER
  8
0
  9
$CELTYPE
  6
ByLayer
  9
$CECOLOR
 62
   256
  9
$CELTSCALE
 40
1.0
  9
$DISPSILH
 70
     0
  9
$DIMSCALE
 40
1.0
  9
$DIMASZ
 40
1.799999999999999
  9
$DIMEXO
 40
0.0625
  9
$DIMDLI
 40
0.38
  9
$DIMRND
 40
0.0
  9
$DIMDLE
 40
0.0
  9
$DIMEXE
 40
0.18
  9
$DIMTP
 40
0.0
  9
$DIMTM
 40
0.0
  9
$DIMTXT
 40
0.3499999940395355
  9
$DIMCEN
 40
0.09
  9
$DIMTSZ
 40
0.0
  9
$DIMTOL
 70
     0
  9
$DIMLIM
 70
     0
  9
$DIMTIH
 70
     1
  9
$DIMTOH
 70
     1
  9
$DIMSE1
 70
     0
  9
$DIMSE2
 70
     0
  9
$DIMTAD
 70
     0
  9
$DIMZIN
 70
     0
  9
$DIMBLK
  1

  9
$DIMASO
 70
     1
  9
$DIMSHO
 70
     1
  9
$DIMPOST
  1

  9
$DIMAPOST
  1

  9
$DIMALT
 70
     0
  9
$DIMALTD
 70
     2
  9
$DIMALTF
 40
25.4
  9
$DIMLFAC
 40
1.0
  9
$DIMTOFL
 70
     0
  9
$DIMTVP
 40
0.0
  9
$DIMTIX
 70
     0
  9
$DIMSOXD
 70
     0
  9
$DIMSAH
 70
     0
  9
$DIMBLK1
  1

  9
$DIMBLK2
  1

  9
$DIMSTYLE
  2
Standard
  9
$DIMCLRD
 70
     0
  9
$DIMCLRE
 70
     0
  9
$DIMCLRT
 70
     0
  9
$DIMTFAC
 40
1.0
  9
$DIMGAP
 40
0.09
  9
$DIMJUST
 70
     0
  9
$DIMSD1
 70
     0
  9
$DIMSD2
 70
     0
  9
$DIMTOLJ
 70
     1
  9
$DIMTZIN
 70
     0
  9
$DIMALTZ
 70
     0
  9
$DIMALTTZ
 70
     0
  9
$DIMUPT
 70
     0
  9
$DIMDEC
 70
     4
  9
$DIMTDEC
 70
     4
  9
$DIMALTU
 70
     2
  9
$DIMALTTD
 70
     2
  9
$DIMTXSTY
  7
Standard
  9
$DIMAUNIT
 70
     0
  9
$DIMADEC
 70
     0
  9
$DIMALTRND
 40
0.0
  9
$DIMAZIN
 70
     0
  9
$DIMDSEP
 70
    46
  9
$DIMATFIT
 70
     3
  9
$DIMFRAC
 70
     0
  9
$DIMLDRBLK
  1

  9
$DIMLUNIT
 70
     2
  9
$DIMLWD
 70
    -2
  9
$DIMLWE
 70
    -2
  9
$DIMTMOVE
 70
     0
  9
$LUNITS
 70
     2
  9
$LUPREC
 70
     4
  9
$SKETCHINC
 40
0.1
  9
$FILLETRAD
 40
0.0
  9
$AUNITS
 70
     0
  9
$AUPREC
 70
     0
  9
$MENU
  1
.
  9
$ELEVATION
 40
0.0
  9
$PELEVATION
 40
0.0
  9
$THICKNESS
 40
0.0
  9
$LIMCHECK
 70
     0
  9
$CHAMFERA
 40
0.0
  9
$CHAMFERB
 40
0.0
  9
$CHAMFERC
 40
0.0
  9
$CHAMFERD
 40
0.0
  9
$SKPOLY
 70
     0
  9
$TDCREATE
 40
2456401.360003970
  9
$TDUCREATE
 40
2456401.276670637
  9
$TDUPDATE
 40
2456401.365997177
  9
$TDUUPDATE
 40
2456401.282663843
  9
$TDINDWG
 40
0.0001920602
  9
$TDUSRTIMER
 40
0.0001920602
  9
$USRTIMER
 70
     1
  9
$ANGBASE
 50
0.0
  9
$ANGDIR
 70
     0
  9
$PDMODE
 70
     0
  9
$PDSIZE
 40
0.0
  9
$PLINEWID
 40
0.0
  9
$SPLFRAME
 70
     0
  9
$SPLINETYPE
 70
     6
  9
$SPLINESEGS
 70
     8
  9
$HANDSEED
  5
711
  9
$SURFTAB1
 70
     6
  9
$SURFTAB2
 70
     6
  9
$SURFTYPE
 70
     6
  9
$SURFU
 70
     6
  9
$SURFV
 70
     6
  9
$UCSBASE
  2

  9
$UCSNAME
  2

  9
$UCSORG
 10
0.0
 20
0.0
 30
0.0
  9
$UCSXDIR
 10
1.0
 20
0.0
 30
0.0
  9
$UCSYDIR
 10
0.0
 20
1.0
 30
0.0
  9
$UCSORTHOREF
  2

  9
$UCSORTHOVIEW
 70
     0
  9
$UCSORGTOP
 10
0.0
 20
0.0
 30
0.0
  9
$UCSORGBOTTOM
 10
0.0
 20
0.0
 30
0.0
  9
$UCSORGLEFT
 10
0.0
 20
0.0
 30
0.0
  9
$UCSORGRIGHT
 10
0.0
 20
0.0
 30
0.0
  9
$UCSORGFRONT
 10
0.0
 20
0.0
 30
0.0
  9
$UCSORGBACK
 10
0.0
 20
0.0
 30
0.0
  9
$PUCSBASE
  2

  9
$PUCSNAME
  2

  9
$PUCSORG
 10
0.0
 20
0.0
 30
0.0
  9
$PUCSXDIR
 10
1.0
 20
0.0
 30
0.0
  9
$PUCSYDIR
 10
0.0
 20
1.0
 30
0.0
  9
$PUCSORTHOREF
  2

  9
$PUCSORTHOVIEW
 70
     0
  9
$PUCSORGTOP
 10
0.0
 20
0.0
 30
0.0
  9
$PUCSORGBOTTOM
 10
0.0
 20
0.0
 30
0.0
  9
$PUCSORGLEFT
 10
0.0
 20
0.0
 30
0.0
  9
$PUCSORGRIGHT
 10
0.0
 20
0.0
 30
0.0
  9
$PUCSORGFRONT
 10
0.0
 20
0.0
 30
0.0
  9
$PUCSORGBACK
 10
0.0
 20
0.0
 30
0.0
  9
$USERI1
 70
     0
  9
$USERI2
 70
     0
  9
$USERI3
 70
     0
  9
$USERI4
 70
     0
  9
$USERI5
 70
     0
  9
$USERR1
 40
0.0
  9
$USERR2
 40
0.0
  9
$USERR3
 40
0.0
  9
$USERR4
 40
0.0
  9
$USERR5
 40
0.0
  9
$WORLDVIEW
 70
     1
  9
$SHADEDGE
 70
     3
  9
$SHADEDIF
 70
    70
  9
$TILEMODE
 70
     1
  9
$MAXACTVP
 70
    64
  9
$PINSBASE
 10
0.0
 20
0.0
 30
0.0
  9
$PLIMCHECK
 70
     0
  9
$PEXTMIN
 10
0.0
 20
0.0
 30
0.0
  9
$PEXTMAX
 10
840.0
 20
594.0
 30
0.0
  9
$PLIMMIN
 10
0.0
 20
0.0
  9
$PLIMMAX
 10
840.0
 20
594.0
  9
$UNITMODE
 70
     0
  9
$VISRETAIN
 70
     1
  9
$PLINEGEN
 70
     0
  9
$PSLTSCALE
 70
     1
  9
$TREEDEPTH
 70
  3020
  9
$CMLSTYLE
  2
Standard
  9
$CMLJUST
 70
     0
  9
$CMLSCALE
 40
1.0
  9
$PROXYGRAPHICS
 70
     1
  9
$MEASUREMENT
 70
     1
  9
$CELWEIGHT
370
    -1
  9
$ENDCAPS
280
     0
  9
$JOINSTYLE
280
     0
  9
$LWDISPLAY
290
     0
  9
$INSUNITS
 70
     4
  9
$HYPERLINKBASE
  1

  9
$STYLESHEET
  1

  9
$XEDIT
290
     1
  9
$CEPSNTYPE
380
     0
  9
$PSTYLEMODE
290
     1
  9
$FINGERPRINTGUID
  2
{2845F5D2-55BB-4E89-A96C-35941CBCFD69}
  9
$VERSIONGUID
  2
{FAFB3F2E-053B-46ED-8F9A-925FBE920AAA}
  9
$EXTNAMES
290
     1
  9
$PSVPSCALE
 40
0.0
  9
$OLESTARTUP
290
     0
  0
ENDSEC
  0
SECTION
  2
CLASSES
  0
CLASS
  1
ACDBDICTIONARYWDFLT
  2
AcDbDictionaryWithDefault
  3
ObjectDBX Classes
 90
        0
280
     0
281
     0
  0
CLASS
  1
MATERIAL
  2
AcDbMaterial
  3
ObjectDBX Classes
 90
     1153
280
     0
281
     0
  0
CLASS
  1
VISUALSTYLE
  2
AcDbVisualStyle
  3
ObjectDBX Classes
 90
     4095
280
     0
281
     0
  0
CLASS
  1
SCALE
  2
AcDbScale
  3
ObjectDBX Classes
 90
     1153
280
     0
281
     0
  0
CLASS
  1
TABLESTYLE
  2
AcDbTableStyle
  3
ObjectDBX Classes
 90
     4095
280
     0
281
     0
  0
CLASS
  1
MLEADERSTYLE
  2
AcDbMLeaderStyle
  3
ACDB_MLEADERSTYLE_CLASS
 90
     4095
280
     0
281
     0
  0
CLASS
  1
DICTIONARYVAR
  2
AcDbDictionaryVar
  3
ObjectDBX Classes
 90
        0
280
     0
281
     0
  0
CLASS
  1
ACME_DOCUMENT
  2
AcMeDbDoc
  3
AcMeServices
 90
     1024
280
     0
281
     0
  0
CLASS
  1
AMGSETTINGSOBJ
  2
AmgSettingsObj
  3
"AcadM|Product Description: AutoCAD Mechanical|Company: Autodesk, Inc."
 90
     1024
280
     0
281
     0
  0
CLASS
  1
ACMESCOPE
  2
AcMeScope
  3
AcMeServices
 90
     1024
280
     0
281
     0
  0
CLASS
  1
ACMECOMMANDHISTORY
  2
AcMeCommandHistory
  3
AcMeServices
 90
     1024
280
     0
281
     0
  0
CLASS
  1
ACIMSYSVARMAN
  2
AcImSysVarManager
  3
AcMeServices
 90
     1024
280
     0
281
     0
  0
CLASS
  1
ACIMINTSYSVAR
  2
AcImIntSysVar
  3
AcMeServices
 90
     1024
280
     0
281
     0
  0
CLASS
  1
ACMESTATEMGR
  2
AcMeStateMgr
  3
AcMeServices
 90
     1024
280
     0
281
     0
  0
CLASS
  1
ACDBENTITYCACHE
  2
AcMeEntityCache
  3
AcMeServices
 90
     1024
280
     0
281
     0
  0
CLASS
  1
ACGREFMASTER
  2
AcGrefMaster
  3
AcAttribServices
 90
     1024
280
     0
281
     0
  0
CLASS
  1
ACME_DATABASE
  2
AcMeDbDatabase
  3
AcMeServices
 90
     1024
280
     0
281
     0
  0
CLASS
  1
ACRFINSADJUSTERMGR
  2
AcRfInsAdjusterMgr
  3
AcMeServices
 90
     1024
280
     0
281
     0
  0
CLASS
  1
ACGREFACADMASTER
  2
AcGrefacadMaster
  3
AcGrefServices
 90
     1024
280
     0
281
     0
  0
CLASS
  1
AMDTMENUSTATEMGR
  2
AmdtMenuStateMgr
  3
McadcomServices
 90
     1024
280
     0
281
     0
  0
CLASS
  1
AMDTMCOMMENUSTATE
  2
AmdtMcomMenuState
  3
McadcomServices
 90
     1024
280
     0
281
     0
  0
CLASS
  1
AMIMASTER
  2
AmiMaster
  3
AmiServices
 90
     1024
280
     0
281
     0
  0
CLASS
  1
MAPIAMMOUDLE
  2
MApiAmModule
  3
MApiAmServices
 90
     1024
280
     0
281
     0
  0
CLASS
  1
ACIMSTRSYSVAR
  2
AcImStrSysVar
  3
AcMeServices
 90
     1024
280
     0
281
     0
  0
CLASS
  1
AMDTAMMENUSTATE
  2
AmdtAmMenuState
  3
DesignerAssemblies
 90
     1024
280
     0
281
     0
  0
CLASS
  1
ACAMPROJECT
  2
AcAmProject
  3
DesignerAssemblies
 90
     1024
280
     0
281
     0
  0
CLASS
  1
ACAMGRCOMPDEF
  2
AcAmGrCompDef
  3
DesignerAssemblies
 90
     1024
280
     0
281
     0
  0
CLASS
  1
ACAMCOMPDEF
  2
AcAmCompDef
  3
DesignerAssemblies
 90
     1024
280
     0
281
     0
  0
CLASS
  1
ACAMCOMPDEFMGR
  2
AcAmCompDefMgr
  3
DesignerAssemblies
 90
     1024
280
     0
281
     0
  0
CLASS
  1
AMCONTEXTMGR
  2
AcAmContextMgr
  3
DesignerAssemblies
 90
     1024
280
     0
281
     0
  0
CLASS
  1
ACAMCONTEXTMODELER
  2
AcAmContextModeler
  3
DesignerAssemblies
 90
     1024
280
     0
281
     0
  0
CLASS
  1
ACMDATADICTIONARY
  2
AcmDataDictionary
  3
"AcmSymBB|Product Description: AutoCAD Mechanical|Company: Autodesk, Inc."
 90
     1024
280
     0
281
     0
  0
CLASS
  1
ACAMGRCOMPDEFSET
  2
AcAmGrCompDefSet
  3
DesignerAssemblies
 90
     1024
280
     0
281
     0
  0
CLASS
  1
AMDTBROWSERDBTAB
  2
AmdtBrowserDbTab
  3
McadcomServices
 90
     1024
280
     0
281
     0
  0
CLASS
  1
CBROWSERAPPOBJECT
  2
CBrowserAppObject
  3
McadcomServices
 90
     1024
280
     0
281
     0
  0
CLASS
  1
DM_PLACEHOLDER
  2
AcDmSelsetPlaceholder
  3
McadcomServices
 90
     1024
280
     0
281
     0
  0
CLASS
  1
EXACXREFPANELOBJECT
  2
ExAcXREFPanelObject
  3
EXAC_ESW
 90
     1025
280
     0
281
     0
  0
CLASS
  1
NPOCOLLECTION
  2
AcDbImpNonPersistentObjectsCollection
  3
ObjectDBX Classes
 90
     1153
280
     0
281
     0
  0
CLASS
  1
ACMSTANDARDISO
  2
AcmStandardISO
  3
"Amdt_StdImp|Product Description: AutoCAD Mechanical|Company: Autodesk, Inc."
 90
     1024
280
     0
281
     0
  0
CLASS
  1
AMDTEDGESTANDARDISO13715
  2
AmdtEdgeStdISO13715
  3
"Amdt_StdImp|Product Description: AutoCAD Mechanical|Company: Autodesk, Inc."
 90
     1024
280
     0
281
     0
  0
CLASS
  1
ACMSURFSTANDARDISO2002
  2
AcmSurfTextStdISO2002
  3
"Amdt_StdImp|Product Description: AutoCAD Mechanical|Company: Autodesk, Inc."
 90
     1024
280
     0
281
     0
  0
CLASS
  1
ACMFCFSTANDARDISO2004
  2
AcmFCFStdISO2004
  3
"Amdt_StdImp|Product Description: AutoCAD Mechanical|Company: Autodesk, Inc."
 90
     1024
280
     0
281
     0
  0
CLASS
  1
ACMWELDSTANDARDISO
  2
AcmWeldingStdISO
  3
"Amdt_StdImp|Product Description: AutoCAD Mechanical|Company: Autodesk, Inc."
 90
     1024
280
     0
281
     0
  0
CLASS
  1
ACMIDSTANDARDISO2004
  2
AcmIdStdISO2004
  3
"Amdt_StdImp|Product Description: AutoCAD Mechanical|Company: Autodesk, Inc."
 90
     1024
280
     0
281
     0
  0
CLASS
  1
ACMDATUMSTANDARDISO
  2
AcmDatumStdISO
  3
"Amdt_StdImp|Product Description: AutoCAD Mechanical|Company: Autodesk, Inc."
 90
     1024
280
     0
281
     0
  0
CLASS
  1
ACMBOMSTANDARDISO
  2
AcmBOMStdISO
  3
"Amdt_StdImp|Product Description: AutoCAD Mechanical|Company: Autodesk, Inc."
 90
     1024
280
     0
281
     0
  0
CLASS
  1
ACMDETAILSTANDARDISO
  2
AmdtDetailSymStdISO
  3
"Amdt_StdImp|Product Description: AutoCAD Mechanical|Company: Autodesk, Inc."
 90
     1024
280
     0
281
     0
  0
CLASS
  1
ACMSECTIONSTANDARDISO2001
  2
AmdtSectionSymStdISO2001
  3
"Amdt_StdImp|Product Description: AutoCAD Mechanical|Company: Autodesk, Inc."
 90
     1024
280
     0
281
     0
  0
CLASS
  1
ACMCENTERLINESTANDARDISO
  2
AmdtCenterLineStdISO
  3
"Amdt_StdImp|Product Description: AutoCAD Mechanical|Company: Autodesk, Inc."
 90
     1024
280
     0
281
     0
  0
CLASS
  1
ACMTHREADLINESTANDARDISO
  2
AmdtThreadLineStdISO
  3
"Amdt_StdImp|Product Description: AutoCAD Mechanical|Company: Autodesk, Inc."
 90
     1024
280
     0
281
     0
  0
CLASS
  1
ACMNOTESTANDARDISO
  2
AmdtNoteStdISO
  3
"Amdt_StdImp|Product Description: AutoCAD Mechanical|Company: Autodesk, Inc."
 90
     1024
280
     0
281
     0
  0
CLASS
  1
ACMTAPERSTANDARDISO
  2
AcmTaperStdISO
  3
"Amdt_StdImp|Product Description: AutoCAD Mechanical|Company: Autodesk, Inc."
 90
     1024
280
     0
281
     0
  0
CLASS
  1
ACMANOOTATIONVIEWSTANDARDISO
  2
AmdtAnViewStdISO
  3
"Amdt_StdImp|Product Description: AutoCAD Mechanical|Company: Autodesk, Inc."
 90
     1024
280
     0
281
     0
  0
CLASS
  1
ACAMGLAYSTD
  2
AcAmgLayStd
  3
"AmgLay|Product Description: AutoCAD Mechanical|Company: Autodesk, Inc."
 90
     1024
280
     0
281
     0
  0
CLASS
  1
ACAMGDIMSTD
  2
AcAmgDimStd
  3
"AmgDim|Product Description: AutoCAD Mechanical|Company: Autodesk, Inc."
 90
     1024
280
     0
281
     0
  0
CLASS
  1
AMGOBJPROPCFG
  2
AmgObjPropCfg
  3
"AmgLay|Product Description: AutoCAD Mechanical|Company: Autodesk, Inc."
 90
     1025
280
     0
281
     0
  0
CLASS
  1
ACAMGHOLECHARTSTDISO
  2
AcAmgHoleChartStdISO
  3
AmgDim|Product Description: AutoCAD Mechanical|Company: Autodesk, Inc.
 90
     1024
280
     0
281
     0
  0
CLASS
  1
ACAMGTITLESTD
  2
AcAmgTitleStd
  3
"AmgTitle|Product Description: AutoCAD Mechanical|Company: Autodesk, Inc."
 90
     4095
280
     0
281
     0
  0
CLASS
  1
AMDTNOTETEMPLATEDB
  2
AmdtNoteTemplateDB
  3
AcmSymBB|Product Description: AutoCAD Mechanical|Company: Autodesk, Inc.
 90
     1024
280
     0
281
     0
  0
CLASS
  1
CELLSTYLEMAP
  2
AcDbCellStyleMap
  3
ObjectDBX Classes
 90
     1152
280
     0
281
     0
  0
CLASS
  1
ACDBPLACEHOLDER
  2
AcDbPlaceHolder
  3
ObjectDBX Classes
 90
        0
280
     0
281
     0
  0
CLASS
  1
LAYOUT
  2
AcDbLayout
  3
ObjectDBX Classes
 90
        0
280
     0
281
     0
  0
ENDSEC
  0
SECTION
  2
TABLES
  0
TABLE
  2
VPORT
  5
8
330
0
100
AcDbSymbolTable
 70
     1
  0
VPORT
  5
57
330
8
100
AcDbSymbolTableRecord
100
AcDbViewportTableRecord
  2
*Active
 70
     0
 10
0.0
 20
0.0
 11
1.0
 21
1.0
 12
445.8657623920146
 22
283.1009856556551
 13
0.0
 23
0.0
 14
1.0
 24
1.0
 15
0.0
 25
0.0
 16
0.0
 26
0.0
 36
1.0
 17
0.0
 27
0.0
 37
0.0
 40
593.9999997233992
 41
1.932266009852216
 42
50.0
 43
0.0
 44
0.0
 50
0.0
 51
0.0
 71
     0
 72
   100
 73
     1
 74
     1
 75
     0
 76
     0
 77
     0
 78
     0
281
     0
 65
     1
110
0.0
120
0.0
130
0.0
111
1.0
121
0.0
131
0.0
112
0.0
122
1.0
132
0.0
 79
     0
146
0.0
1001
ACAD_NAV_VCDISPLAY
1070
     3
  0
ENDTAB
  0
TABLE
  2
LTYPE
  5
5
330
0
100
AcDbSymbolTable
 70
    69
  0
LTYPE
  5
5B
330
5
100
AcDbSymbolTableRecord
100
AcDbLinetypeTableRecord
  2
ByBlock
 70
     0
  3

 72
    65
 73
     0
 40
0.0
  0
LTYPE
  5
5C
330
5
100
AcDbSymbolTableRecord
100
AcDbLinetypeTableRecord
  2
ByLayer
 70
     0
  3

 72
    65
 73
     0
 40
0.0
  0
LTYPE
  5
5D
330
5
100
AcDbSymbolTableRecord
100
AcDbLinetypeTableRecord
  2
Continuous
 70
     0
  3
Solid line
 72
    65
 73
     0
 40
0.0
  0
LTYPE
  5
74
330
5
100
AcDbSymbolTableRecord
100
AcDbLinetypeTableRecord
  2
Section_View_Lines
 70
     0
  3
Section View Lines
 72
    65
 73
     4
 40
0.8406
 49
0.6614
 74
     0
 49
-0.0827
 74
     0
 49
0.0138
 74
     0
 49
-0.0827
 74
     0
  0
LTYPE
  5
75
330
5
100
AcDbSymbolTableRecord
100
AcDbLinetypeTableRecord
  2
CHAIN
 70
     0
  3
Chain ____ _ ____ _ ____ _ ____ _ ____ _ ____
 72
    65
 73
     4
 40
0.3543
 49
0.2362
 74
     0
 49
-0.0295
 74
     0
 49
0.0591
 74
     0
 49
-0.0295
 74
     0
  0
LTYPE
  5
76
330
5
100
AcDbSymbolTableRecord
100
AcDbLinetypeTableRecord
  2
DASH_DOT
 70
     0
  3
Dash dot _._._._._._._._._._._._._._._.
 72
    65
 73
     4
 40
0.182
 49
0.1181
 74
     0
 49
-0.0295
 74
     0
 49
0.0049
 74
     0
 49
-0.0295
 74
     0
  0
LTYPE
  5
77
330
5
100
AcDbSymbolTableRecord
100
AcDbLinetypeTableRecord
  2
DASH_DOUBLE_DOT
 70
     0
  3
Dash Double Dot __ __ . __ __ . __ __ . __ _
 72
    65
 73
     6
 40
0.2164
 49
0.1181
 74
     0
 49
-0.0295
 74
     0
 49
0.0049
 74
     0
 49
-0.0295
 74
     0
 49
0.0049
 74
     0
 49
-0.0295
 74
     0
  0
LTYPE
  5
78
330
5
100
AcDbSymbolTableRecord
100
AcDbLinetypeTableRecord
  2
DASH_TRIPLE_DOT
 70
     0
  3
Dash Triple-Dot _ . . . _ . . . _ . . . _
 72
    65
 73
     8
 40
0.2508
 49
0.1181
 74
     0
 49
-0.0295
 74
     0
 49
0.0049
 74
     0
 49
-0.0295
 74
     0
 49
0.0049
 74
     0
 49
-0.0295
 74
     0
 49
0.0049
 74
     0
 49
-0.0295
 74
     0
  0
LTYPE
  5
79
330
5
100
AcDbSymbolTableRecord
100
AcDbLinetypeTableRecord
  2
DASHED
 70
     0
  3
Dashed __ __ __ __ __ __ __ __ __ __ __ __ __ _
 72
    65
 73
     2
 40
0.2068
 49
0.1655
 74
     0
 49
-0.0413
 74
     0
  0
LTYPE
  5
7A
330
5
100
AcDbSymbolTableRecord
100
AcDbLinetypeTableRecord
  2
DASHED_SPACE
 70
     0
  3
Dashed Space __ __ __ __ __ __ __ __ __ __ __ _
 72
    65
 73
     2
 40
0.2067
 49
0.1654
 74
     0
 49
-0.0413
 74
     0
  0
LTYPE
  5
7B
330
5
100
AcDbSymbolTableRecord
100
AcDbLinetypeTableRecord
  2
DOTTED
 70
     0
  3
Dotted . . . . . . . . . . . . . . . . . . . . 
 72
    65
 73
     2
 40
0.0481
 49
0.0068
 74
     0
 49
-0.0413
 74
     0
  0
LTYPE
  5
7C
330
5
100
AcDbSymbolTableRecord
100
AcDbLinetypeTableRecord
  2
DOUBLE_DASH_CHAIN
 70
     0
  3
Double Dash Chain ___ _ _ ___ _ _ ___ _ _ ___ _
 72
    65
 73
     6
 40
1.240299999999999
 49
0.6614
 74
     0
 49
-0.0827
 74
     0
 49
0.1654
 74
     0
 49
-0.0827
 74
     0
 49
0.1654
 74
     0
 49
-0.0827
 74
     0
  0
LTYPE
  5
7D
330
5
100
AcDbSymbolTableRecord
100
AcDbLinetypeTableRecord
  2
DOUBLE_DASH_DOT
 70
     0
  3
Double Dash Dot __ __ . __ __ . __ __ . __ _
 72
    65
 73
     6
 40
0.3296
 49
0.1181
 74
     0
 49
-0.0295
 74
     0
 49
0.1181
 74
     0
 49
-0.0295
 74
     0
 49
0.0049
 74
     0
 49
-0.0295
 74
     0
  0
LTYPE
  5
7E
330
5
100
AcDbSymbolTableRecord
100
AcDbLinetypeTableRecord
  2
DOUBLE_DASH_DOUBLE_DOT
 70
     0
  3
Double Dash Double Dot _ _ . . _ _ . . _ _
 72
    65
 73
     8
 40
0.364
 49
0.1181
 74
     0
 49
-0.0295
 74
     0
 49
0.1181
 74
     0
 49
-0.0295
 74
     0
 49
0.0049
 74
     0
 49
-0.0295
 74
     0
 49
0.0049
 74
     0
 49
-0.0295
 74
     0
  0
LTYPE
  5
7F
330
5
100
AcDbSymbolTableRecord
100
AcDbLinetypeTableRecord
  2
DOUBLE_DASH_TRIPLE_DOT
 70
     0
  3
Double Dash Triple Dot __ __ . . . __ __ . . .
 72
    65
 73
    10
 40
0.3984
 49
0.1181
 74
     0
 49
-0.0295
 74
     0
 49
0.1181
 74
     0
 49
-0.0295
 74
     0
 49
0.0049
 74
     0
 49
-0.0295
 74
     0
 49
0.0049
 74
     0
 49
-0.0295
 74
     0
 49
0.0049
 74
     0
 49
-0.0295
 74
     0
  0
LTYPE
  5
80
330
5
100
AcDbSymbolTableRecord
100
AcDbLinetypeTableRecord
  2
LONG_DASH_DOTTED
 70
     0
  3
Long Dash Dotted ____ . ____ . ____ . ____ . _
 72
    65
 73
     4
 40
0.3001
 49
0.2362
 74
     0
 49
-0.0295
 74
     0
 49
0.0049
 74
     0
 49
-0.0295
 74
     0
  0
LTYPE
  5
81
330
5
100
AcDbSymbolTableRecord
100
AcDbLinetypeTableRecord
  2
LONG_DASH_DOUBLE_DOT
 70
     0
  3
Long Dash Double Dot ____ . . ____ . . ____ . .
 72
    65
 73
     6
 40
0.3345
 49
0.2362
 74
     0
 49
-0.0295
 74
     0
 49
0.0049
 74
     0
 49
-0.0295
 74
     0
 49
0.0049
 74
     0
 49
-0.0295
 74
     0
  0
LTYPE
  5
82
330
5
100
AcDbSymbolTableRecord
100
AcDbLinetypeTableRecord
  2
LONG_DASH_TRIPLE_DOT
 70
     0
  3
Long Dash Triple Dot ____ ... ____ ... ____
 72
    65
 73
     8
 40
0.3689
 49
0.2362
 74
     0
 49
-0.0295
 74
     0
 49
0.0049
 74
     0
 49
-0.0295
 74
     0
 49
0.0049
 74
     0
 49
-0.0295
 74
     0
 49
0.0049
 74
     0
 49
-0.0295
 74
     0
  0
LTYPE
  5
83
330
5
100
AcDbSymbolTableRecord
100
AcDbLinetypeTableRecord
  2
BORDER
 70
     0
  3
Border __ __ . __ __ . __ __ . __ __ . __ __ .
 72
    65
 73
     6
 40
44.45
 49
12.7
 74
     0
 49
-6.349999999999999
 74
     0
 49
12.7
 74
     0
 49
-6.349999999999999
 74
     0
 49
0.0
 74
     0
 49
-6.349999999999999
 74
     0
  0
LTYPE
  5
84
330
5
100
AcDbSymbolTableRecord
100
AcDbLinetypeTableRecord
  2
BORDER2
 70
     0
  3
Border (.5x) __.__.__.__.__.__.__.__.__.__.__.
 72
    65
 73
     6
 40
22.225
 49
6.349999999999999
 74
     0
 49
-3.174999999999999
 74
     0
 49
6.349999999999999
 74
     0
 49
-3.174999999999999
 74
     0
 49
0.0
 74
     0
 49
-3.174999999999999
 74
     0
  0
LTYPE
  5
85
330
5
100
AcDbSymbolTableRecord
100
AcDbLinetypeTableRecord
  2
BORDERX2
 70
     0
  3
Border (2x) ____  ____  .  ____  ____  .  ___
 72
    65
 73
     6
 40
88.9
 49
25.4
 74
     0
 49
-12.7
 74
     0
 49
25.4
 74
     0
 49
-12.7
 74
     0
 49
0.0
 74
     0
 49
-12.7
 74
     0
  0
LTYPE
  5
86
330
5
100
AcDbSymbolTableRecord
100
AcDbLinetypeTableRecord
  2
CENTER
 70
     0
  3
Center ____ _ ____ _ ____ _ ____ _ ____ _ ____
 72
    65
 73
     4
 40
50.8
 49
31.75
 74
     0
 49
-6.349999999999999
 74
     0
 49
6.349999999999999
 74
     0
 49
-6.349999999999999
 74
     0
  0
LTYPE
  5
87
330
5
100
AcDbSymbolTableRecord
100
AcDbLinetypeTableRecord
  2
CENTER2
 70
     0
  3
Center (.5x) ___ _ ___ _ ___ _ ___ _ ___ _ ___
 72
    65
 73
     4
 40
28.575
 49
19.05
 74
     0
 49
-3.174999999999999
 74
     0
 49
3.174999999999999
 74
     0
 49
-3.174999999999999
 74
     0
  0
LTYPE
  5
88
330
5
100
AcDbSymbolTableRecord
100
AcDbLinetypeTableRecord
  2
CENTERX2
 70
     0
  3
Center (2x) ________  __  ________  __  _____
 72
    65
 73
     4
 40
101.6
 49
63.5
 74
     0
 49
-12.7
 74
     0
 49
12.7
 74
     0
 49
-12.7
 74
     0
  0
LTYPE
  5
89
330
5
100
AcDbSymbolTableRecord
100
AcDbLinetypeTableRecord
  2
DASHDOT2
 70
     0
  3
Dash dot (.5x) _._._._._._._._._._._._._._._.
 72
    65
 73
     4
 40
12.7
 49
6.349999999999999
 74
     0
 49
-3.174999999999999
 74
     0
 49
0.0
 74
     0
 49
-3.174999999999999
 74
     0
  0
LTYPE
  5
8A
330
5
100
AcDbSymbolTableRecord
100
AcDbLinetypeTableRecord
  2
DASHDOTX2
 70
     0
  3
Dash dot (2x) ____  .  ____  .  ____  .  ___
 72
    65
 73
     4
 40
50.8
 49
25.4
 74
     0
 49
-12.7
 74
     0
 49
0.0
 74
     0
 49
-12.7
 74
     0
  0
LTYPE
  5
8B
330
5
100
AcDbSymbolTableRecord
100
AcDbLinetypeTableRecord
  2
DASHED2
 70
     0
  3
Dashed (.5x) _ _ _ _ _ _ _ _ _ _ _ _ _ _ _ _ _
 72
    65
 73
     2
 40
9.524999999999998
 49
6.349999999999999
 74
     0
 49
-3.174999999999999
 74
     0
  0
LTYPE
  5
8C
330
5
100
AcDbSymbolTableRecord
100
AcDbLinetypeTableRecord
  2
DASHEDX2
 70
     0
  3
Dashed (2x) ____  ____  ____  ____  ____  ___
 72
    65
 73
     2
 40
38.1
 49
25.4
 74
     0
 49
-12.7
 74
     0
  0
LTYPE
  5
8D
330
5
100
AcDbSymbolTableRecord
100
AcDbLinetypeTableRecord
  2
DIVIDE
 70
     0
  3
Divide ____ . . ____ . . ____ . . ____ . . ____
 72
    65
 73
     6
 40
31.75
 49
12.7
 74
     0
 49
-6.349999999999999
 74
     0
 49
0.0
 74
     0
 49
-6.349999999999999
 74
     0
 49
0.0
 74
     0
 49
-6.349999999999999
 74
     0
  0
LTYPE
  5
8E
330
5
100
AcDbSymbolTableRecord
100
AcDbLinetypeTableRecord
  2
DIVIDE2
 70
     0
  3
Divide (.5x) __..__..__..__..__..__..__..__.._
 72
    65
 73
     6
 40
15.875
 49
6.349999999999999
 74
     0
 49
-3.174999999999999
 74
     0
 49
0.0
 74
     0
 49
-3.174999999999999
 74
     0
 49
0.0
 74
     0
 49
-3.174999999999999
 74
     0
  0
LTYPE
  5
8F
330
5
100
AcDbSymbolTableRecord
100
AcDbLinetypeTableRecord
  2
DIVIDEX2
 70
     0
  3
Divide (2x) ________  .  .  ________  .  .  _
 72
    65
 73
     6
 40
63.49999999999999
 49
25.4
 74
     0
 49
-12.7
 74
     0
 49
0.0
 74
     0
 49
-12.7
 74
     0
 49
0.0
 74
     0
 49
-12.7
 74
     0
  0
LTYPE
  5
90
330
5
100
AcDbSymbolTableRecord
100
AcDbLinetypeTableRecord
  2
DOT
 70
     0
  3
Dot . . . . . . . . . . . . . . . . . . . . . .
 72
    65
 73
     2
 40
6.349999999999999
 49
0.0
 74
     0
 49
-6.349999999999999
 74
     0
  0
LTYPE
  5
91
330
5
100
AcDbSymbolTableRecord
100
AcDbLinetypeTableRecord
  2
DOT2
 70
     0
  3
Dot (.5x) .....................................
 72
    65
 73
     2
 40
3.174999999999999
 49
0.0
 74
     0
 49
-3.174999999999999
 74
     0
  0
LTYPE
  5
92
330
5
100
AcDbSymbolTableRecord
100
AcDbLinetypeTableRecord
  2
DOTX2
 70
     0
  3
Dot (2x) .  .  .  .  .  .  .  .  .  .  .  .  . 
 72
    65
 73
     2
 40
12.7
 49
0.0
 74
     0
 49
-12.7
 74
     0
  0
LTYPE
  5
93
330
5
100
AcDbSymbolTableRecord
100
AcDbLinetypeTableRecord
  2
HIDDEN
 70
     0
  3
Hidden __ __ __ __ __ __ __ __ __ __ __ __ __ _
 72
    65
 73
     2
 40
9.524999999999998
 49
6.349999999999999
 74
     0
 49
-3.174999999999999
 74
     0
  0
LTYPE
  5
94
330
5
100
AcDbSymbolTableRecord
100
AcDbLinetypeTableRecord
  2
HIDDEN2
 70
     0
  3
Hidden (.5x) _ _ _ _ _ _ _ _ _ _ _ _ _ _ _ _ _
 72
    65
 73
     2
 40
4.762499999999999
 49
3.174999999999999
 74
     0
 49
-1.587499999999999
 74
     0
  0
LTYPE
  5
95
330
5
100
AcDbSymbolTableRecord
100
AcDbLinetypeTableRecord
  2
HIDDENX2
 70
     0
  3
Hidden (2x) ____ ____ ____ ____ ____ ____ ____
 72
    65
 73
     2
 40
19.05
 49
12.7
 74
     0
 49
-6.349999999999999
 74
     0
  0
LTYPE
  5
96
330
5
100
AcDbSymbolTableRecord
100
AcDbLinetypeTableRecord
  2
PHANTOM
 70
     0
  3
Phantom ______  __  __  ______  __  __  ______
 72
    65
 73
     6
 40
63.5
 49
31.75
 74
     0
 49
-6.349999999999999
 74
     0
 49
6.349999999999999
 74
     0
 49
-6.349999999999999
 74
     0
 49
6.349999999999999
 74
     0
 49
-6.349999999999999
 74
     0
  0
LTYPE
  5
97
330
5
100
AcDbSymbolTableRecord
100
AcDbLinetypeTableRecord
  2
PHANTOM2
 70
     0
  3
Phantom (.5x) ___ _ _ ___ _ _ ___ _ _ ___ _ _
 72
    65
 73
     6
 40
31.75
 49
15.875
 74
     0
 49
-3.174999999999999
 74
     0
 49
3.174999999999999
 74
     0
 49
-3.174999999999999
 74
     0
 49
3.174999999999999
 74
     0
 49
-3.174999999999999
 74
     0
  0
LTYPE
  5
98
330
5
100
AcDbSymbolTableRecord
100
AcDbLinetypeTableRecord
  2
PHANTOMX2
 70
     0
  3
Phantom (2x) ____________    ____    ____   _
 72
    65
 73
     6
 40
127.0
 49
63.5
 74
     0
 49
-12.7
 74
     0
 49
12.7
 74
     0
 49
-12.7
 74
     0
 49
12.7
 74
     0
 49
-12.7
 74
     0
  0
LTYPE
  5
99
330
5
100
AcDbSymbolTableRecord
100
AcDbLinetypeTableRecord
  2
ACAD_ISO02W100
 70
     0
  3
ISO dash __ __ __ __ __ __ __ __ __ __ __ __ __
 72
    65
 73
     2
 40
15.0
 49
12.0
 74
     0
 49
-3.0
 74
     0
  0
LTYPE
  5
9A
330
5
100
AcDbSymbolTableRecord
100
AcDbLinetypeTableRecord
  2
ACAD_ISO03W100
 70
     0
  3
ISO dash space __    __    __    __    __    __
 72
    65
 73
     2
 40
30.0
 49
12.0
 74
     0
 49
-18.0
 74
     0
  0
LTYPE
  5
9B
330
5
100
AcDbSymbolTableRecord
100
AcDbLinetypeTableRecord
  2
ACAD_ISO04W100
 70
     0
  3
ISO long-dash dot ____ . ____ . ____ . ____ . _
 72
    65
 73
     4
 40
30.0
 49
24.0
 74
     0
 49
-3.0
 74
     0
 49
0.0
 74
     0
 49
-3.0
 74
     0
  0
LTYPE
  5
9C
330
5
100
AcDbSymbolTableRecord
100
AcDbLinetypeTableRecord
  2
ACAD_ISO05W100
 70
     0
  3
ISO long-dash double-dot ____ .. ____ .. ____ .
 72
    65
 73
     6
 40
33.0
 49
24.0
 74
     0
 49
-3.0
 74
     0
 49
0.0
 74
     0
 49
-3.0
 74
     0
 49
0.0
 74
     0
 49
-3.0
 74
     0
  0
LTYPE
  5
9D
330
5
100
AcDbSymbolTableRecord
100
AcDbLinetypeTableRecord
  2
ACAD_ISO06W100
 70
     0
  3
ISO long-dash triple-dot ____ ... ____ ... ____
 72
    65
 73
     8
 40
36.0
 49
24.0
 74
     0
 49
-3.0
 74
     0
 49
0.0
 74
     0
 49
-3.0
 74
     0
 49
0.0
 74
     0
 49
-3.0
 74
     0
 49
0.0
 74
     0
 49
-3.0
 74
     0
  0
LTYPE
  5
9E
330
5
100
AcDbSymbolTableRecord
100
AcDbLinetypeTableRecord
  2
ACAD_ISO07W100
 70
     0
  3
ISO dot . . . . . . . . . . . . . . . . . . . .
 72
    65
 73
     2
 40
3.0
 49
0.0
 74
     0
 49
-3.0
 74
     0
  0
LTYPE
  5
9F
330
5
100
AcDbSymbolTableRecord
100
AcDbLinetypeTableRecord
  2
ACAD_ISO08W100
 70
     0
  3
ISO long-dash short-dash ____ __ ____ __ ____ _
 72
    65
 73
     4
 40
36.0
 49
24.0
 74
     0
 49
-3.0
 74
     0
 49
6.0
 74
     0
 49
-3.0
 74
     0
  0
LTYPE
  5
A0
330
5
100
AcDbSymbolTableRecord
100
AcDbLinetypeTableRecord
  2
ACAD_ISO09W100
 70
     0
  3
ISO long-dash double-short-dash ____ __ __ ____
 72
    65
 73
     6
 40
45.0
 49
24.0
 74
     0
 49
-3.0
 74
     0
 49
6.0
 74
     0
 49
-3.0
 74
     0
 49
6.0
 74
     0
 49
-3.0
 74
     0
  0
LTYPE
  5
A1
330
5
100
AcDbSymbolTableRecord
100
AcDbLinetypeTableRecord
  2
ACAD_ISO10W100
 70
     0
  3
ISO dash dot __ . __ . __ . __ . __ . __ . __ .
 72
    65
 73
     4
 40
18.0
 49
12.0
 74
     0
 49
-3.0
 74
     0
 49
0.0
 74
     0
 49
-3.0
 74
     0
  0
LTYPE
  5
A2
330
5
100
AcDbSymbolTableRecord
100
AcDbLinetypeTableRecord
  2
ACAD_ISO11W100
 70
     0
  3
ISO double-dash dot __ __ . __ __ . __ __ . __ 
 72
    65
 73
     6
 40
33.0
 49
12.0
 74
     0
 49
-3.0
 74
     0
 49
12.0
 74
     0
 49
-3.0
 74
     0
 49
0.0
 74
     0
 49
-3.0
 74
     0
  0
LTYPE
  5
A3
330
5
100
AcDbSymbolTableRecord
100
AcDbLinetypeTableRecord
  2
ACAD_ISO12W100
 70
     0
  3
ISO dash double-dot __ . . __ . . __ . . __ . .
 72
    65
 73
     6
 40
21.0
 49
12.0
 74
     0
 49
-3.0
 74
     0
 49
0.0
 74
     0
 49
-3.0
 74
     0
 49
0.0
 74
     0
 49
-3.0
 74
     0
  0
LTYPE
  5
A4
330
5
100
AcDbSymbolTableRecord
100
AcDbLinetypeTableRecord
  2
ACAD_ISO13W100
 70
     0
  3
ISO double-dash double-dot __ __ . . __ __ . . 
 72
    65
 73
     8
 40
36.0
 49
12.0
 74
     0
 49
-3.0
 74
     0
 49
12.0
 74
     0
 49
-3.0
 74
     0
 49
0.0
 74
     0
 49
-3.0
 74
     0
 49
0.0
 74
     0
 49
-3.0
 74
     0
  0
LTYPE
  5
A5
330
5
100
AcDbSymbolTableRecord
100
AcDbLinetypeTableRecord
  2
ACAD_ISO14W100
 70
     0
  3
ISO dash triple-dot __ . . . __ . . . __ . . . 
 72
    65
 73
     8
 40
24.0
 49
12.0
 74
     0
 49
-3.0
 74
     0
 49
0.0
 74
     0
 49
-3.0
 74
     0
 49
0.0
 74
     0
 49
-3.0
 74
     0
 49
0.0
 74
     0
 49
-3.0
 74
     0
  0
LTYPE
  5
A6
330
5
100
AcDbSymbolTableRecord
100
AcDbLinetypeTableRecord
  2
ACAD_ISO15W100
 70
     0
  3
ISO double-dash triple-dot __ __ . . . __ __ . 
 72
    65
 73
    10
 40
39.0
 49
12.0
 74
     0
 49
-3.0
 74
     0
 49
12.0
 74
     0
 49
-3.0
 74
     0
 49
0.0
 74
     0
 49
-3.0
 74
     0
 49
0.0
 74
     0
 49
-3.0
 74
     0
 49
0.0
 74
     0
 49
-3.0
 74
     0
  0
LTYPE
  5
A9
330
5
100
AcDbSymbolTableRecord
100
AcDbLinetypeTableRecord
  2
FENCELINE1
 70
     0
  3
Fenceline circle ----0-----0----0-----0----0---
 72
    65
 73
     4
 40
36.83
 49
6.349999999999999
 74
     0
 49
-2.54
 74
     4
 75
   133
340
A8
 46
2.54
 50
0.0
 44
-2.54
 45
0.0
 49
-2.54
 74
     0
 49
25.4
 74
     0
  0
LTYPE
  5
AA
330
5
100
AcDbSymbolTableRecord
100
AcDbLinetypeTableRecord
  2
FENCELINE2
 70
     0
  3
Fenceline square ----[]-----[]----[]-----[]----
 72
    65
 73
     4
 40
36.83
 49
6.349999999999999
 74
     0
 49
-2.54
 74
     4
 75
   132
340
A8
 46
2.54
 50
0.0
 44
-2.54
 45
0.0
 49
-2.54
 74
     0
 49
25.4
 74
     0
  0
LTYPE
  5
AB
330
5
100
AcDbSymbolTableRecord
100
AcDbLinetypeTableRecord
  2
TRACKS
 70
     0
  3
Tracks -|-|-|-|-|-|-|-|-|-|-|-|-|-|-|-|-|-|-|-|
 72
    65
 73
     2
 40
7.62
 49
3.81
 74
     4
 75
   130
340
A8
 46
6.349999999999999
 50
0.0
 44
0.0
 45
0.0
 49
3.81
 74
     0
  0
LTYPE
  5
AC
330
5
100
AcDbSymbolTableRecord
100
AcDbLinetypeTableRecord
  2
BATTING
 70
     0
  3
Batting SSSSSSSSSSSSSSSSSSSSSSSSSSSSSSSSSSSSSSS
 72
    65
 73
     4
 40
10.16254
 49
0.00254
 74
     0
 49
-2.54
 74
     4
 75
   134
340
A8
 46
2.54
 50
0.0
 44
-2.54
 45
0.0
 49
-5.08
 74
     4
 75
   134
340
A8
 46
2.54
 50
180.0
 44
2.54
 45
0.0
 49
-2.54
 74
     0
  0
LTYPE
  5
AD
330
5
100
AcDbSymbolTableRecord
100
AcDbLinetypeTableRecord
  2
HOT_WATER_SUPPLY
 70
     0
  3
Hot water supply ---- HW ---- HW ---- HW ----
 72
    65
 73
     3
 40
22.86
 49
12.7
 74
     0
 49
-5.08
 74
     2
 75
     0
340
55
 46
2.54
 50
0.0
 44
-2.54
 45
-1.27
  9
HW
 49
-5.08
 74
     0
  0
LTYPE
  5
AE
330
5
100
AcDbSymbolTableRecord
100
AcDbLinetypeTableRecord
  2
GAS_LINE
 70
     0
  3
Gas line ----GAS----GAS----GAS----GAS----GAS---
 72
    65
 73
     3
 40
24.13
 49
12.7
 74
     0
 49
-5.08
 74
     2
 75
     0
340
55
 46
2.54
 50
0.0
 44
-2.54
 45
-1.27
  9
GAS
 49
-6.349999999999999
 74
     0
  0
LTYPE
  5
AF
330
5
100
AcDbSymbolTableRecord
100
AcDbLinetypeTableRecord
  2
ZIGZAG
 70
     0
  3
Zig zag /\/\/\/\/\/\/\/\/\/\/\/\/\/\/\/\/\/\/\/
 72
    65
 73
     4
 40
20.32254
 49
0.00254
 74
     0
 49
-5.08
 74
     4
 75
   131
340
A8
 46
5.08
 50
0.0
 44
-5.08
 45
0.0
 49
-10.16
 74
     4
 75
   131
340
A8
 46
5.08
 50
180.0
 44
5.08
 45
0.0
 49
-5.08
 74
     0
  0
LTYPE
  5
6A1
330
5
100
AcDbSymbolTableRecord
100
AcDbLinetypeTableRecord
  2
AM_ISO02W050
 70
     0
  3
__ __ __ __ __ __ __ __ __ __ __ __ __ __ __
 72
    65
 73
     2
 40
7.5
 49
6.0
 74
     0
 49
-1.5
 74
     0
  0
LTYPE
  5
6A2
330
5
100
AcDbSymbolTableRecord
100
AcDbLinetypeTableRecord
  2
AM_ISO08W050
 70
     0
  3
____ . ____ . ____ . ____ . ____ . ____ . ____
 72
    65
 73
     4
 40
18.0
 49
12.0
 74
     0
 49
-1.5
 74
     0
 49
3.0
 74
     0
 49
-1.5
 74
     0
  0
LTYPE
  5
6A3
330
5
100
AcDbSymbolTableRecord
100
AcDbLinetypeTableRecord
  2
AM_ISO09W050
 70
     0
  3
_____ . . _____ . . _____ . . ____ .. ____
 72
    65
 73
     6
 40
22.5
 49
12.0
 74
     0
 49
-1.5
 74
     0
 49
3.0
 74
     0
 49
-1.5
 74
     0
 49
3.0
 74
     0
 49
-1.5
 74
     0
  0
LTYPE
  5
6A4
330
5
100
AcDbSymbolTableRecord
100
AcDbLinetypeTableRecord
  2
Amconstr
 70
     0
  3
_______________________
 72
    65
 73
     2
 40
9999.0
 49
9999.0
 74
     0
 49
0.0
 74
     0
  0
LTYPE
  5
6A5
330
5
100
AcDbSymbolTableRecord
100
AcDbLinetypeTableRecord
  2
AM_ISO08W050x2
 70
     0
  3
__ . __ . __ . __ . __ . __
 72
    65
 73
     4
 40
9.0
 49
6.0
 74
     0
 49
-0.75
 74
     0
 49
1.5
 74
     0
 49
-0.75
 74
     0
  0
LTYPE
  5
6A6
330
5
100
AcDbSymbolTableRecord
100
AcDbLinetypeTableRecord
  2
AM_ISO02W050x2
 70
     0
  3
 _ _ _ _ _ _ _ _ _ _ _ _
 72
    65
 73
     2
 40
3.75
 49
3.0
 74
     0
 49
-0.75
 74
     0
  0
LTYPE
  5
6A9
330
5
100
AcDbSymbolTableRecord
100
AcDbLinetypeTableRecord
  2
Amzigzag
 70
     0
  3
/\/-/\/-/\/-/\/-/\/-/\/
 72
    65
 73
     2
 40
11.0001
 49
0.0001
 74
     4
 75
   136
340
6A8
 46
0.04
 50
0.0
 44
0.0
 45
0.0
 49
-11.0
 74
     0
  0
LTYPE
  5
6B8
330
5
100
AcDbSymbolTableRecord
100
AcDbLinetypeTableRecord
  2
ACISOWELD
 70
     0
  3
_ _ _ _ _
 72
    65
 73
     2
 40
2.0
 49
2.0
 74
     0
 49
-1.0
 74
     0
  0
LTYPE
  5
6B9
330
5
100
AcDbSymbolTableRecord
100
AcDbLinetypeTableRecord
  2
ACISOTGL
 70
     0
  3
_ _ _ _ _
 72
    65
 73
     2
 40
3.0
 49
2.0
 74
     0
 49
-1.0
 74
     0
  0
LTYPE
  5
6BA
330
5
100
AcDbSymbolTableRecord
100
AcDbLinetypeTableRecord
  2
ACISOTGB
 70
     0
  3
__ . . __ . .
 72
    65
 73
     6
 40
9.0
 49
4.0
 74
     0
 49
-1.0
 74
     0
 49
1.0
 74
     0
 49
-1.0
 74
     0
 49
1.0
 74
     0
 49
-1.0
 74
     0
  0
ENDTAB
  0
TABLE
  2
LAYER
  5
2
330
0
100
AcDbSymbolTable
 70
     2
  0
LAYER
  5
54
330
2
100
AcDbSymbolTableRecord
100
AcDbLayerTableRecord
  2
0
 70
     0
 62
     7
  6
Continuous
370
    -3
390
F
  0
LAYER
  5
17F
330
2
100
AcDbSymbolTableRecord
100
AcDbLayerTableRecord
  2
Spigoli visibili(ISO)
 70
     0
 62
   179
  6
Continuous
370
    35
390
F
  0
ENDTAB
  0
TABLE
  2
STYLE
  5
3
330
0
100
AcDbSymbolTable
 70
     6
  0
STYLE
  5
55
330
3
100
AcDbSymbolTableRecord
100
AcDbTextStyleTableRecord
  2
Standard
 70
     0
 40
0.0
 41
1.0
 50
0.0
 71
     0
 42
0.2
  3
ARIAL.TTF
  4

1001
ACAD
1000
Arial
1071
      256
  0
STYLE
  5
5A
330
3
100
AcDbSymbolTableRecord
100
AcDbTextStyleTableRecord
  2
Annotative
 70
     0
 40
0.0
 41
1.0
 50
0.0
 71
     0
 42
0.2
  3
txt
  4

1001
AcadAnnotative
1000
AnnotativeData
1002
{
1070
     1
1070
     1
1002
}
  0
STYLE
  5
A8
330
3
100
AcDbSymbolTableRecord
100
AcDbTextStyleTableRecord
  2

 70
     1
 40
0.0
 41
1.0
 50
0.0
 71
     0
 42
0.2
  3
ltypeshp.shx
  4

  0
STYLE
  5
6A8
330
3
100
AcDbSymbolTableRecord
100
AcDbTextStyleTableRecord
  2

 70
     1
 40
0.0
 41
1.0
 50
0.0
 71
     0
 42
0.2
  3
genltshp.shx
  4

  0
STYLE
  5
6B6
330
3
100
AcDbSymbolTableRecord
100
AcDbTextStyleTableRecord
  2
ACISOTS
 70
     0
 40
1.0
 41
1.0
 50
0.0
 71
     0
 42
0.2
  3
isocp.shx
  4

  0
STYLE
  5
6B7
330
3
100
AcDbSymbolTableRecord
100
AcDbTextStyleTableRecord
  2
ACISOGDT
 70
     0
 40
0.0
 41
1.0
 50
0.0
 71
     0
 42
0.2
  3
amgdt.shx
  4

  0
ENDTAB
  0
TABLE
  2
VIEW
  5
6
330
0
100
AcDbSymbolTable
 70
     0
  0
ENDTAB
  0
TABLE
  2
UCS
  5
7
330
0
100
AcDbSymbolTable
 70
     0
  0
ENDTAB
  0
TABLE
  2
APPID
  5
9
330
0
100
AcDbSymbolTable
 70
    14
  0
APPID
  5
56
330
9
100
AcDbSymbolTableRecord
100
AcDbRegAppTableRecord
  2
ACAD
 70
     0
  0
APPID
  5
5E
330
9
100
AcDbSymbolTableRecord
100
AcDbRegAppTableRecord
  2
AcadAnnotative
 70
     0
  0
APPID
  5
65E
330
9
100
AcDbSymbolTableRecord
100
AcDbRegAppTableRecord
  2
MCAD_NO_VIS
 70
     0
  0
APPID
  5
65F
330
9
100
AcDbSymbolTableRecord
100
AcDbRegAppTableRecord
  2
ACAD_TEMP_GRAPHIC
 70
     0
  0
APPID
  5
669
330
9
100
AcDbSymbolTableRecord
100
AcDbRegAppTableRecord
  2
ACATTRIBSERVICES
 70
     0
  0
APPID
  5
681
330
9
100
AcDbSymbolTableRecord
100
AcDbRegAppTableRecord
  2
DESIGNERASSEMBLIES
 70
     0
  0
APPID
  5
69E
330
9
100
AcDbSymbolTableRecord
100
AcDbRegAppTableRecord
  2
ACAD_DSTYLE_DIMJAG
 70
     0
  0
APPID
  5
69F
330
9
100
AcDbSymbolTableRecord
100
AcDbRegAppTableRecord
  2
ACAD_DSTYLE_DIMBREAK
 70
     0
  0
APPID
  5
6C1
330
9
100
AcDbSymbolTableRecord
100
AcDbRegAppTableRecord
  2
ACAD_NAV_VCDISPLAY
 70
     0
  0
APPID
  5
706
330
9
100
AcDbSymbolTableRecord
100
AcDbRegAppTableRecord
  2
ACAD_MLEADERVER
 70
     0
  0
APPID
  5
70D
330
9
100
AcDbSymbolTableRecord
100
AcDbRegAppTableRecord
  2
ACAD_DSTYLE_DIMARC_LENGTH_SYMBOL
 70
     0
  0
APPID
  5
70E
330
9
100
AcDbSymbolTableRecord
100
AcDbRegAppTableRecord
  2
ACAD_DSTYLE_DIM_LINETYPE
 70
     0
  0
APPID
  5
70F
330
9
100
AcDbSymbolTableRecord
100
AcDbRegAppTableRecord
  2
ACAD_DSTYLE_DIM_EXT1_LINETYPE
 70
     0
  0
APPID
  5
710
330
9
100
AcDbSymbolTableRecord
100
AcDbRegAppTableRecord
  2
ACAD_DSTYLE_DIM_EXT2_LINETYPE
 70
     0
  0
ENDTAB
  0
TABLE
  2
DIMSTYLE
  5
A
330
0
100
AcDbSymbolTable
 70
     9
100
AcDbDimStyleTable
 71
     0
  0
DIMSTYLE
105
58
330
A
100
AcDbSymbolTableRecord
100
AcDbDimStyleTableRecord
  2
Standard
 70
     0
340
55
  0
DIMSTYLE
105
59
330
A
100
AcDbSymbolTableRecord
100
AcDbDimStyleTableRecord
  2
Annotative
 70
     0
340
55
1001
AcadAnnotative
1000
AnnotativeData
1002
{
1070
     1
1070
     1
1002
}
  0
DIMSTYLE
105
69D
102
{ACAD_REACTORS
330
68C
102
}
330
A
100
AcDbSymbolTableRecord
100
AcDbDimStyleTableRecord
  2
AM_ISO
 70
     0
  4
"
 41
3.5
 42
1.0
 43
10.0
 44
1.0
 47
0.1
 48
0.1
 73
     0
 74
     0
 77
     1
 78
     8
 79
     2
140
3.5
141
0.0
143
0.0393701
146
0.71
147
1.5
172
     1
176
   256
177
   256
178
     2
271
     2
272
     3
274
     4
283
     0
284
     8
340
55
371
    -1
372
    -1
1001
ACAD_DSTYLE_DIMJAG
1070
   388
1040
1.5
1001
ACAD_DSTYLE_DIMBREAK
1070
   391
1040
3.75
1001
ACAD_DSTYLE_DIMARC_LENGTH_SYMBOL
1070
   379
1070
     1
1001
ACAD_DSTYLE_DIM_LINETYPE
1070
   380
1005
5B
1001
ACAD_DSTYLE_DIM_EXT1_LINETYPE
1070
   381
1005
5B
1001
ACAD_DSTYLE_DIM_EXT2_LINETYPE
1070
   382
1005
5B
  0
DIMSTYLE
105
6AA
330
A
100
AcDbSymbolTableRecord
100
AcDbDimStyleTableRecord
  2
AM_ISO$3
 70
     0
  4
"
 41
3.5
 42
1.0
 43
10.0
 44
1.0
 47
0.1
 48
0.1
 73
     0
 77
     1
 78
     8
 79
     2
140
3.5
141
0.0
143
0.0393701
146
0.71
147
1.5
176
   256
177
   256
178
     2
271
     2
272
     3
274
     4
283
     0
284
     8
288
     1
289
     0
340
55
371
    -1
372
    -1
1001
ACAD_DSTYLE_DIMBREAK
1070
   391
1040
3.75
1001
ACAD_DSTYLE_DIMJAG
1070
   388
1040
1.5
1001
ACAD_DSTYLE_DIMARC_LENGTH_SYMBOL
1070
   379
1070
     1
1001
ACAD_DSTYLE_DIM_LINETYPE
1070
   380
1005
5B
1001
ACAD_DSTYLE_DIM_EXT1_LINETYPE
1070
   381
1005
5B
1001
ACAD_DSTYLE_DIM_EXT2_LINETYPE
1070
   382
1005
5B
  0
DIMSTYLE
105
6AB
330
A
100
AcDbSymbolTableRecord
100
AcDbDimStyleTableRecord
  2
AM_ISO$4
 70
     0
  4
"
 41
3.5
 42
1.0
 43
10.0
 44
1.0
 47
0.1
 48
0.1
 73
     0
 77
     1
 78
     8
 79
     2
140
3.5
141
0.0
143
0.0393701
146
0.71
147
1.5
176
   256
177
   256
178
     2
271
     2
272
     3
274
     4
283
     0
284
     8
288
     1
289
     0
340
55
371
    -1
372
    -1
1001
ACAD_DSTYLE_DIMBREAK
1070
   391
1040
3.75
1001
ACAD_DSTYLE_DIMJAG
1070
   388
1040
1.5
1001
ACAD_DSTYLE_DIMARC_LENGTH_SYMBOL
1070
   379
1070
     1
1001
ACAD_DSTYLE_DIM_LINETYPE
1070
   380
1005
5B
1001
ACAD_DSTYLE_DIM_EXT1_LINETYPE
1070
   381
1005
5B
1001
ACAD_DSTYLE_DIM_EXT2_LINETYPE
1070
   382
1005
5B
  0
DIMSTYLE
105
6AC
330
A
100
AcDbSymbolTableRecord
100
AcDbDimStyleTableRecord
  2
AM_ISO$6
 70
     0
  4
"
 41
3.5
 42
1.0
 43
10.0
 44
1.0
 47
0.1
 48
0.1
 73
     0
 74
     0
 78
     8
 79
     2
140
3.5
141
0.0
143
0.0393701
146
0.71
147
1.5
172
     1
176
   256
177
   256
178
     2
271
     2
272
     3
274
     4
283
     0
284
     8
340
55
371
    -1
372
    -1
1001
ACAD_DSTYLE_DIMBREAK
1070
   391
1040
3.75
1001
ACAD_DSTYLE_DIMJAG
1070
   388
1040
1.5
1001
ACAD_DSTYLE_DIMARC_LENGTH_SYMBOL
1070
   379
1070
     1
1001
ACAD_DSTYLE_DIM_LINETYPE
1070
   380
1005
5B
1001
ACAD_DSTYLE_DIM_EXT1_LINETYPE
1070
   381
1005
5B
1001
ACAD_DSTYLE_DIM_EXT2_LINETYPE
1070
   382
1005
5B
  0
DIMSTYLE
105
6AD
330
A
100
AcDbSymbolTableRecord
100
AcDbDimStyleTableRecord
  2
AM_ISO$7
 70
     0
  4
"
 41
3.5
 42
1.0
 43
10.0
 44
1.0
 47
0.1
 48
0.1
 73
     0
 74
     0
 77
     1
 78
     8
 79
     2
140
3.5
141
0.0
143
0.0393701
146
0.71
147
1.5
172
     1
176
   256
177
   256
178
     2
271
     2
272
     3
274
     4
283
     0
284
     8
340
55
371
    -1
372
    -1
1001
ACAD_DSTYLE_DIMBREAK
1070
   391
1040
3.75
1001
ACAD_DSTYLE_DIMJAG
1070
   388
1040
1.5
1001
ACAD_DSTYLE_DIMARC_LENGTH_SYMBOL
1070
   379
1070
     1
1001
ACAD_DSTYLE_DIM_LINETYPE
1070
   380
1005
5B
1001
ACAD_DSTYLE_DIM_EXT1_LINETYPE
1070
   381
1005
5B
1001
ACAD_DSTYLE_DIM_EXT2_LINETYPE
1070
   382
1005
5B
  0
DIMSTYLE
105
6AE
330
A
100
AcDbSymbolTableRecord
100
AcDbDimStyleTableRecord
  2
AM_ISO$SF
 70
     0
  4
"
 41
3.5
 42
1.0
 43
10.0
 44
1.0
 47
0.1
 48
0.1
 73
     0
 74
     0
 75
     1
 76
     1
 77
     1
 78
     8
 79
     2
140
3.5
141
0.0
143
0.0393701
146
0.71
147
1.5
172
     1
176
   256
177
   256
178
     2
271
     2
272
     3
274
     4
283
     0
284
     8
340
55
371
    -1
372
    -1
1001
ACAD_DSTYLE_DIMBREAK
1070
   391
1040
3.75
1001
ACAD_DSTYLE_DIMJAG
1070
   388
1040
1.5
1001
ACAD_DSTYLE_DIMARC_LENGTH_SYMBOL
1070
   379
1070
     1
1001
ACAD_DSTYLE_DIM_LINETYPE
1070
   380
1005
5B
1001
ACAD_DSTYLE_DIM_EXT1_LINETYPE
1070
   381
1005
5B
1001
ACAD_DSTYLE_DIM_EXT2_LINETYPE
1070
   382
1005
5B
  0
DIMSTYLE
105
6B3
330
A
100
AcDbSymbolTableRecord
100
AcDbDimStyleTableRecord
  2
AM_ISO$SH
 70
     0
  4
"
 41
3.5
 42
1.0
 43
10.0
 44
1.0
 47
0.1
 48
0.1
 73
     0
 74
     0
 75
     1
 76
     1
 77
     1
 78
     8
 79
     2
140
3.5
141
0.0
143
0.0393701
144
2.0
146
0.71
147
1.5
172
     1
173
     1
176
   256
177
   256
178
     2
271
     2
272
     3
274
     4
283
     0
284
     8
340
55
343
6AF
371
    -1
372
    -1
1001
ACAD_DSTYLE_DIMBREAK
1070
   391
1040
3.75
1001
ACAD_DSTYLE_DIMJAG
1070
   388
1040
1.5
1001
ACAD_DSTYLE_DIMARC_LENGTH_SYMBOL
1070
   379
1070
     1
1001
ACAD_DSTYLE_DIM_LINETYPE
1070
   380
1005
5B
1001
ACAD_DSTYLE_DIM_EXT1_LINETYPE
1070
   381
1005
5B
1001
ACAD_DSTYLE_DIM_EXT2_LINETYPE
1070
   382
1005
5B
  0
ENDTAB
  0
TABLE
  2
BLOCK_RECORD
  5
1
330
0
100
AcDbSymbolTable
 70
     3
  0
BLOCK_RECORD
  5
6C
330
1
100
AcDbSymbolTableRecord
100
AcDbBlockTableRecord
  2
*Model_Space
340
6F
  0
BLOCK_RECORD
  5
68
330
1
100
AcDbSymbolTableRecord
100
AcDbBlockTableRecord
  2
*Paper_Space
340
6B
  0
BLOCK_RECORD
  5
70
330
1
100
AcDbSymbolTableRecord
100
AcDbBlockTableRecord
  2
*Paper_Space0
340
73
  0
BLOCK_RECORD
  5
6AF
330
1
100
AcDbSymbolTableRecord
100
AcDbBlockTableRecord
  2
GENAXEH
340
0
  0
ENDTAB
  0
ENDSEC
  0
SECTION
  2
BLOCKS
  0
BLOCK
  5
6D
330
6C
100
AcDbEntity
  8
0
100
AcDbBlockBegin
  2
*Model_Space
 70
     0
 10
0.0
 20
0.0
 30
0.0
  3
*Model_Space
  1

  0
ENDBLK
  5
6E
330
6C
100
AcDbEntity
  8
0
100
AcDbBlockEnd
  0
BLOCK
  5
69
330
68
100
AcDbEntity
 67
     1
  8
0
100
AcDbBlockBegin
  2
*Paper_Space
 70
     0
 10
0.0
 20
0.0
 30
0.0
  3
*Paper_Space
  1

  0
ENDBLK
  5
6A
330
68
100
AcDbEntity
 67
     1
  8
0
100
AcDbBlockEnd
  0
BLOCK
  5
71
330
70
100
AcDbEntity
 67
     1
  8
0
100
AcDbBlockBegin
  2
*Paper_Space0
 70
     0
 10
0.0
 20
0.0
 30
0.0
  3
*Paper_Space0
  1

  0
ENDBLK
  5
72
330
70
100
AcDbEntity
 67
     1
  8
0
100
AcDbBlockEnd
  0
BLOCK
  5
6B1
330
6AF
100
AcDbEntity
  8
0
100
AcDbBlockBegin
  2
GENAXEH
 70
     0
 10
0.0
 20
0.0
 30
0.0
  3
GENAXEH
  1

  0
LINE
  5
6B0
330
6AF
100
AcDbEntity
  8
0
100
AcDbLine
 10
-1.0
 20
0.0
 30
0.0
 11
1.0
 21
0.0
 31
0.0
  0
ENDBLK
  5
6B2
330
6AF
100
AcDbEntity
  8
0
100
AcDbBlockEnd
  0
ENDSEC
  0
SECTION
  2
ENTITIES
  0
LINE
  5
182
330
6C
100
AcDbEntity
  8
Spigoli visibili(ISO)
100
AcDbLine
 10
194.999460613569
 20
435.2947655642971
 30
0.0
 11
194.999460613569
 21
445.2947655642971
 31
0.0
  0
ARC
  5
184
330
6C
100
AcDbEntity
  8
Spigoli visibili(ISO)
100
AcDbCircle
 10
201.249460613569
 20
435.2947655642971
 30
0.0
 40
6.25
100
AcDbArc
 50
180.0
 51
0.0
  0
LINE
  5
185
330
6C
100
AcDbEntity
  8
Spigoli visibili(ISO)
100
AcDbLine
 10
207.499460613569
 20
445.2947655642971
 30
0.0
 11
207.499460613569
 21
435.2947655642971
 31
0.0
  0
LINE
  5
186
330
6C
100
AcDbEntity
  8
Spigoli visibili(ISO)
100
AcDbLine
 10
279.999460613569
 20
435.2947655642971
 30
0.0
 11
279.999460613569
 21
445.2947655642972
 31
0.0
  0
ARC
  5
187
330
6C
100
AcDbEntity
  8
Spigoli visibili(ISO)
100
AcDbCircle
 10
286.249460613569
 20
435.2947655642971
 30
0.0
 40
6.25
100
AcDbArc
 50
180.0
 51
0.0
  0
LINE
  5
188
330
6C
100
AcDbEntity
  8
Spigoli visibili(ISO)
100
AcDbLine
 10
292.499460613569
 20
445.2947655642971
 30
0.0
 11
292.499460613569
 21
435.2947655642971
 31
0.0
  0
ARC
  5
189
330
6C
100
AcDbEntity
  8
Spigoli visibili(ISO)
100
AcDbCircle
 10
348.749460613569
 20
365.2947655642972
 30
0.0
 40
5.000000000000017
100
AcDbArc
 50
270.0000000000008
 51
0.0
  0
ARC
  5
18A
330
6C
100
AcDbEntity
  8
Spigoli visibili(ISO)
100
AcDbCircle
 10
138.749460613569
 20
365.2947655642972
 30
0.0
 40
5.000000000000017
100
AcDbArc
 50
180.0
 51
269.9999999999998
  0
LINE
  5
18B
330
6C
100
AcDbEntity
  8
Spigoli visibili(ISO)
100
AcDbLine
 10
353.749460613569
 20
365.2947655642971
 30
0.0
 11
353.749460613569
 21
462.2947655642971
 31
0.0
  0
LINE
  5
18C
330
6C
100
AcDbEntity
  8
Spigoli visibili(ISO)
100
AcDbLine
 10
133.749460613569
 20
462.2947655642971
 30
0.0
 11
133.749460613569
 21
365.2947655642971
 31
0.0
  0
LINE
  5
18D
330
6C
100
AcDbEntity
  8
Spigoli visibili(ISO)
100
AcDbLine
 10
138.749460613569
 20
360.2947655642971
 30
0.0
 11
348.749460613569
 21
360.2947655642971
 31
0.0
  0
CIRCLE
  5
18E
330
6C
100
AcDbEntity
  8
Spigoli visibili(ISO)
100
AcDbCircle
 10
161.249460613569
 20
385.2947655642971
 30
0.0
 40
6.25
  0
ARC
  5
18F
330
6C
100
AcDbEntity
  8
Spigoli visibili(ISO)
100
AcDbCircle
 10
286.249460613569
 20
445.2947655642971
 30
0.0
 40
6.25
100
AcDbArc
 50
0.0
 51
180.0
  0
ARC
  5
190
330
6C
100
AcDbEntity
  8
Spigoli visibili(ISO)
100
AcDbCircle
 10
201.249460613569
 20
445.2947655642971
 30
0.0
 40
6.25
100
AcDbArc
 50
0.0
 51
180.0
  0
CIRCLE
  5
191
330
6C
100
AcDbEntity
  8
Spigoli visibili(ISO)
100
AcDbCircle
 10
326.249460613569
 20
385.2947655642971
 30
0.0
 40
6.25
  0
LINE
  5
192
330
6C
100
AcDbEntity
  8
Spigoli visibili(ISO)
100
AcDbLine
 10
133.749460613569
 20
470.2947655642971
 30
0.0
 11
353.749460613569
 21
470.2947655642971
 31
0.0
  0
LINE
  5
193
330
6C
100
AcDbEntity
  8
Spigoli visibili(ISO)
100
AcDbLine
 10
133.749460613569
 20
470.2947655642971
 30
0.0
 11
133.749460613569
 21
462.2947655642971
 31
0.0
  0
LINE
  5
194
330
6C
100
AcDbEntity
  8
Spigoli visibili(ISO)
100
AcDbLine
 10
353.749460613569
 20
470.2947655642971
 30
0.0
 11
353.749460613569
 21
462.2947655642971
 31
0.0
  0
LINE
  5
195
330
6C
100
AcDbEntity
  8
Spigoli visibili(ISO)
100
AcDbLine
 10
311.2121181181928
 20
484.7947655642971
 30
0.0
 11
325.2121181181928
 21
484.7947655642971
 31
0.0
  0
LINE
  5
196
330
6C
100
AcDbEntity
  8
Spigoli visibili(ISO)
100
AcDbLine
 10
326.2121181181928
 20
483.794765564297
 30
0.0
 11
310.2121181181928
 21
483.794765564297
 31
0.0
  0
LINE
  5
197
330
6C
100
AcDbEntity
  8
Spigoli visibili(ISO)
100
AcDbLine
 10
325.2121181181928
 20
484.7947655642971
 30
0.0
 11
326.2121181181928
 21
483.794765564297
 31
0.0
  0
LINE
  5
198
330
6C
100
AcDbEntity
  8
Spigoli visibili(ISO)
100
AcDbLine
 10
311.2121181181928
 20
484.7947655642971
 30
0.0
 11
310.2121181181928
 21
483.794765564297
 31
0.0
  0
LINE
  5
199
330
6C
100
AcDbEntity
  8
Spigoli visibili(ISO)
100
AcDbLine
 10
326.2121181181928
 20
483.794765564297
 30
0.0
 11
326.2121181181928
 21
478.2947655642971
 31
0.0
  0
LINE
  5
19A
330
6C
100
AcDbEntity
  8
Spigoli visibili(ISO)
100
AcDbLine
 10
310.2121181181928
 20
483.794765564297
 30
0.0
 11
310.2121181181928
 21
478.2947655642971
 31
0.0
  0
LINE
  5
19B
330
6C
100
AcDbEntity
  8
Spigoli visibili(ISO)
100
AcDbLine
 10
325.2121181181928
 20
484.7947655642971
 30
0.0
 11
325.749460613569
 21
484.7947655642971
 31
0.0
  0
LINE
  5
19C
330
6C
100
AcDbEntity
  8
Spigoli visibili(ISO)
100
AcDbLine
 10
326.749460613569
 20
483.7947655642971
 30
0.0
 11
326.2121181181928
 21
483.7947655642971
 31
0.0
  0
LINE
  5
19D
330
6C
100
AcDbEntity
  8
Spigoli visibili(ISO)
100
AcDbLine
 10
325.749460613569
 20
484.7947655642971
 30
0.0
 11
326.749460613569
 21
483.7947655642971
 31
0.0
  0
LINE
  5
19E
330
6C
100
AcDbEntity
  8
Spigoli visibili(ISO)
100
AcDbLine
 10
326.749460613569
 20
483.7947655642971
 30
0.0
 11
326.749460613569
 21
478.2947655642971
 31
0.0
  0
LINE
  5
19F
330
6C
100
AcDbEntity
  8
Spigoli visibili(ISO)
100
AcDbLine
 10
161.749460613569
 20
484.7947655642971
 30
0.0
 11
175.749460613569
 21
484.7947655642971
 31
0.0
  0
LINE
  5
1A0
330
6C
100
AcDbEntity
  8
Spigoli visibili(ISO)
100
AcDbLine
 10
176.749460613569
 20
483.7947655642971
 30
0.0
 11
160.749460613569
 21
483.7947655642971
 31
0.0
  0
LINE
  5
1A1
330
6C
100
AcDbEntity
  8
Spigoli visibili(ISO)
100
AcDbLine
 10
175.749460613569
 20
484.7947655642971
 30
0.0
 11
176.749460613569
 21
483.7947655642971
 31
0.0
  0
LINE
  5
1A2
330
6C
100
AcDbEntity
  8
Spigoli visibili(ISO)
100
AcDbLine
 10
161.749460613569
 20
484.7947655642971
 30
0.0
 11
160.749460613569
 21
483.7947655642971
 31
0.0
  0
LINE
  5
1A3
330
6C
100
AcDbEntity
  8
Spigoli visibili(ISO)
100
AcDbLine
 10
176.749460613569
 20
483.7947655642971
 30
0.0
 11
176.749460613569
 21
478.2947655642971
 31
0.0
  0
LINE
  5
1A4
330
6C
100
AcDbEntity
  8
Spigoli visibili(ISO)
100
AcDbLine
 10
160.749460613569
 20
483.7947655642971
 30
0.0
 11
160.749460613569
 21
478.2947655642971
 31
0.0
  0
POLYLINE
  5
1A5
330
6C
100
AcDbEntity
  8
Spigoli visibili(ISO)
100
AcDb2dPolyline
 66
     1
 10
0.0
 20
0.0
 30
0.0
 70
   128
  0
VERTEX
  5
1A6
330
1A5
100
AcDbEntity
  8
Spigoli visibili(ISO)
100
AcDbVertex
100
AcDb2dVertex
 10
306.2090062788984
 20
477.2208922466957
 30
0.0
  0
VERTEX
  5
1A7
330
1A5
100
AcDbEntity
  8
Spigoli visibili(ISO)
100
AcDbVertex
100
AcDb2dVertex
 10
306.7762744120619
 20
477.403126482806
 30
0.0
  0
VERTEX
  5
1A9
330
1A5
100
AcDbEntity
  8
Spigoli visibili(ISO)
100
AcDbVertex
100
AcDb2dVertex
 10
307.3247408560774
 20
477.56566433437
 30
0.0
  0
VERTEX
  5
1AA
330
1A5
100
AcDbEntity
  8
Spigoli visibili(ISO)
100
AcDbVertex
100
AcDb2dVertex
 10
307.8567313841841
 20
477.7096656847187
 30
0.0
  0
VERTEX
  5
1AB
330
1A5
100
AcDbEntity
  8
Spigoli visibili(ISO)
100
AcDbVertex
100
AcDb2dVertex
 10
308.3743744782469
 20
477.8361270169727
 30
0.0
  0
VERTEX
  5
1AC
330
1A5
100
AcDbEntity
  8
Spigoli visibili(ISO)
100
AcDbVertex
100
AcDb2dVertex
 10
308.8796305350324
 20
477.9458768456412
 30
0.0
  0
VERTEX
  5
1AD
330
1A5
100
AcDbEntity
  8
Spigoli visibili(ISO)
100
AcDbVertex
100
AcDb2dVertex
 10
309.374322264578
 20
478.0396435703336
 30
0.0
  0
VERTEX
  5
1AE
330
1A5
100
AcDbEntity
  8
Spigoli visibili(ISO)
100
AcDbVertex
100
AcDb2dVertex
 10
309.8601549557707
 20
478.1180244516368
 30
0.0
  0
VERTEX
  5
1AF
330
1A5
100
AcDbEntity
  8
Spigoli visibili(ISO)
100
AcDbVertex
100
AcDb2dVertex
 10
310.3387421063444
 20
478.1815120668375
 30
0.0
  0
VERTEX
  5
1B0
330
1A5
100
AcDbEntity
  8
Spigoli visibili(ISO)
100
AcDbVertex
100
AcDb2dVertex
 10
310.8116185359022
 20
478.2304988783226
 30
0.0
  0
VERTEX
  5
1B1
330
1A5
100
AcDbEntity
  8
Spigoli visibili(ISO)
100
AcDbVertex
100
AcDb2dVertex
 10
311.280263035681
 20
478.2652677169154
 30
0.0
  0
VERTEX
  5
1B2
330
1A5
100
AcDbEntity
  8
Spigoli visibili(ISO)
100
AcDbVertex
100
AcDb2dVertex
 10
311.7461085013411
 20
478.2860550671869
 30
0.0
  0
VERTEX
  5
1B3
330
1A5
100
AcDbEntity
  8
Spigoli visibili(ISO)
100
AcDbVertex
100
AcDb2dVertex
 10
312.2105621985456
 20
478.2929712229486
 30
0.0
  0
VERTEX
  5
1B4
330
1A5
100
AcDbEntity
  8
Spigoli visibili(ISO)
100
AcDbVertex
100
AcDb2dVertex
 10
312.6750158957502
 20
478.2860586243008
 30
0.0
  0
VERTEX
  5
1B5
330
1A5
100
AcDbEntity
  8
Spigoli visibili(ISO)
100
AcDbVertex
100
AcDb2dVertex
 10
313.1408613614103
 20
478.265272824305
 30
0.0
  0
VERTEX
  5
1B6
330
1A5
100
AcDbEntity
  8
Spigoli visibili(ISO)
100
AcDbVertex
100
AcDb2dVertex
 10
313.6095055631658
 20
478.2304969539109
 30
0.0
  0
VERTEX
  5
1B7
330
1A5
100
AcDbEntity
  8
Spigoli visibili(ISO)
100
AcDbVertex
100
AcDb2dVertex
 10
314.0823822907468
 20
478.1815152662339
 30
0.0
  0
VERTEX
  5
1B8
330
1A5
100
AcDbEntity
  8
Spigoli visibili(ISO)
100
AcDbVertex
100
AcDb2dVertex
 10
314.5609691432974
 20
478.1180300756144
 30
0.0
  0
VERTEX
  5
1B9
330
1A5
100
AcDbEntity
  8
Spigoli visibili(ISO)
100
AcDbVertex
100
AcDb2dVertex
 10
315.0468021325132
 20
478.0396414872235
 30
0.0
  0
VERTEX
  5
1BA
330
1A5
100
AcDbEntity
  8
Spigoli visibili(ISO)
100
AcDbVertex
100
AcDb2dVertex
 10
315.5414932660123
 20
477.9458734729237
 30
0.0
  0
VERTEX
  5
1BB
330
1A5
100
AcDbEntity
  8
Spigoli visibili(ISO)
100
AcDbVertex
100
AcDb2dVertex
 10
316.0467493227979
 20
477.836120482483
 30
0.0
  0
VERTEX
  5
1BC
330
1A5
100
AcDbEntity
  8
Spigoli visibili(ISO)
100
AcDbVertex
100
AcDb2dVertex
 10
316.5643922678491
 20
477.709668951035
 30
0.0
  0
VERTEX
  5
1BD
330
1A5
100
AcDbEntity
  8
Spigoli visibili(ISO)
100
AcDbVertex
100
AcDb2dVertex
 10
317.0963833174964
 20
477.5656650378897
 30
0.0
  0
VERTEX
  5
1BE
330
1A5
100
AcDbEntity
  8
Spigoli visibili(ISO)
100
AcDbVertex
100
AcDb2dVertex
 10
317.6448502085468
 20
477.4031171006659
 30
0.0
  0
VERTEX
  5
1BF
330
1A5
100
AcDbEntity
  8
Spigoli visibili(ISO)
100
AcDbVertex
100
AcDb2dVertex
 10
318.2121181181927
 20
477.2208911268896
 30
0.0
  0
SEQEND
  5
1A8
330
1A5
100
AcDbEntity
  8
Spigoli visibili(ISO)
  0
LINE
  5
1C0
330
6C
100
AcDbEntity
  8
Spigoli visibili(ISO)
100
AcDbLine
 10
306.2090060217406
 20
477.2208940636044
 30
0.0
 11
306.2090060217406
 21
471.3686370649898
 31
0.0
  0
POLYLINE
  5
1C1
330
6C
100
AcDbEntity
  8
Spigoli visibili(ISO)
100
AcDb2dPolyline
 66
     1
 10
0.0
 20
0.0
 30
0.0
 70
   128
  0
VERTEX
  5
1C2
330
1C1
100
AcDbEntity
  8
Spigoli visibili(ISO)
100
AcDbVertex
100
AcDb2dVertex
 10
318.2121181181928
 20
471.3686386045375
 30
0.0
  0
VERTEX
  5
1C3
330
1C1
100
AcDbEntity
  8
Spigoli visibili(ISO)
100
AcDbVertex
100
AcDb2dVertex
 10
317.6448502085468
 20
471.1864056054929
 30
0.0
  0
VERTEX
  5
1C5
330
1C1
100
AcDbEntity
  8
Spigoli visibili(ISO)
100
AcDbVertex
100
AcDb2dVertex
 10
317.0963833174964
 20
471.0238665168631
 30
0.0
  0
VERTEX
  5
1C6
330
1C1
100
AcDbEntity
  8
Spigoli visibili(ISO)
100
AcDbVertex
100
AcDb2dVertex
 10
316.5643922678491
 20
470.8798651665144
 30
0.0
  0
VERTEX
  5
1C7
330
1C1
100
AcDbEntity
  8
Spigoli visibili(ISO)
100
AcDbVertex
100
AcDb2dVertex
 10
316.0467493227979
 20
470.7534038342604
 30
0.0
  0
VERTEX
  5
1C8
330
1C1
100
AcDbEntity
  8
Spigoli visibili(ISO)
100
AcDbVertex
100
AcDb2dVertex
 10
315.5414932660123
 20
470.643654005592
 30
0.0
  0
VERTEX
  5
1C9
330
1C1
100
AcDbEntity
  8
Spigoli visibili(ISO)
100
AcDbVertex
100
AcDb2dVertex
 10
315.0468021325132
 20
470.5498885179653
 30
0.0
  0
VERTEX
  5
1CA
330
1C1
100
AcDbEntity
  8
Spigoli visibili(ISO)
100
AcDbVertex
100
AcDb2dVertex
 10
314.5609691432973
 20
470.4715063995963
 30
0.0
  0
VERTEX
  5
1CB
330
1C1
100
AcDbEntity
  8
Spigoli visibili(ISO)
100
AcDbVertex
100
AcDb2dVertex
 10
314.0823822907468
 20
470.4080187843956
 30
0.0
  0
VERTEX
  5
1CC
330
1C1
100
AcDbEntity
  8
Spigoli visibili(ISO)
100
AcDbVertex
100
AcDb2dVertex
 10
313.6095055631658
 20
470.3590332099763
 30
0.0
  0
VERTEX
  5
1CD
330
1C1
100
AcDbEntity
  8
Spigoli visibili(ISO)
100
AcDbVertex
100
AcDb2dVertex
 10
313.1408613614103
 20
470.3242631343178
 30
0.0
  0
VERTEX
  5
1CE
330
1C1
100
AcDbEntity
  8
Spigoli visibili(ISO)
100
AcDbVertex
100
AcDb2dVertex
 10
312.6750158957502
 20
470.3034757840463
 30
0.0
  0
VERTEX
  5
1CF
330
1C1
100
AcDbEntity
  8
Spigoli visibili(ISO)
100
AcDbVertex
100
AcDb2dVertex
 10
312.2105621985456
 20
470.2965608653504
 30
0.0
  0
VERTEX
  5
1D0
330
1C1
100
AcDbEntity
  8
Spigoli visibili(ISO)
100
AcDbVertex
100
AcDb2dVertex
 10
311.7461085013411
 20
470.3034734639982
 30
0.0
  0
VERTEX
  5
1D1
330
1C1
100
AcDbEntity
  8
Spigoli visibili(ISO)
100
AcDbVertex
100
AcDb2dVertex
 10
311.280263035681
 20
470.3242580269281
 30
0.0
  0
VERTEX
  5
1D2
330
1C1
100
AcDbEntity
  8
Spigoli visibili(ISO)
100
AcDbVertex
100
AcDb2dVertex
 10
310.8116185359022
 20
470.3590351343881
 30
0.0
  0
VERTEX
  5
1D3
330
1C1
100
AcDbEntity
  8
Spigoli visibili(ISO)
100
AcDbVertex
100
AcDb2dVertex
 10
310.3387421063444
 20
470.4080155849992
 30
0.0
  0
VERTEX
  5
1D4
330
1C1
100
AcDbEntity
  8
Spigoli visibili(ISO)
100
AcDbVertex
100
AcDb2dVertex
 10
309.8601549557707
 20
470.4715007756187
 30
0.0
  0
VERTEX
  5
1D5
330
1C1
100
AcDbEntity
  8
Spigoli visibili(ISO)
100
AcDbVertex
100
AcDb2dVertex
 10
309.374322264578
 20
470.5498798473459
 30
0.0
  0
VERTEX
  5
1D6
330
1C1
100
AcDbEntity
  8
Spigoli visibili(ISO)
100
AcDbVertex
100
AcDb2dVertex
 10
308.8796305350324
 20
470.6436586153753
 30
0.0
  0
VERTEX
  5
1D7
330
1C1
100
AcDbEntity
  8
Spigoli visibili(ISO)
100
AcDbVertex
100
AcDb2dVertex
 10
308.3743744782469
 20
470.7534103687502
 30
0.0
  0
VERTEX
  5
1D8
330
1C1
100
AcDbEntity
  8
Spigoli visibili(ISO)
100
AcDbVertex
100
AcDb2dVertex
 10
307.8567313841841
 20
470.8798619001981
 30
0.0
  0
VERTEX
  5
1D9
330
1C1
100
AcDbEntity
  8
Spigoli visibili(ISO)
100
AcDbVertex
100
AcDb2dVertex
 10
307.3247408560774
 20
471.0238658133434
 30
0.0
  0
VERTEX
  5
1DA
330
1C1
100
AcDbEntity
  8
Spigoli visibili(ISO)
100
AcDbVertex
100
AcDb2dVertex
 10
306.7762744120619
 20
471.1864137505673
 30
0.0
  0
VERTEX
  5
1DB
330
1C1
100
AcDbEntity
  8
Spigoli visibili(ISO)
100
AcDbVertex
100
AcDb2dVertex
 10
306.2090062788984
 20
471.3686409614093
 30
0.0
  0
SEQEND
  5
1C4
330
1C1
100
AcDbEntity
  8
Spigoli visibili(ISO)
  0
LINE
  5
1DC
330
6C
100
AcDbEntity
  8
Spigoli visibili(ISO)
100
AcDbLine
 10
318.2121181181928
 20
477.2208940636044
 30
0.0
 11
318.2121181181928
 21
471.3686370649898
 31
0.0
  0
POLYLINE
  5
1DD
330
6C
100
AcDbEntity
  8
Spigoli visibili(ISO)
100
AcDb2dPolyline
 66
     1
 10
0.0
 20
0.0
 30
0.0
 70
   128
  0
VERTEX
  5
1DE
330
1DD
100
AcDbEntity
  8
Spigoli visibili(ISO)
100
AcDbVertex
100
AcDb2dVertex
 10
318.2121181181929
 20
477.2208911268896
 30
0.0
  0
VERTEX
  5
1DF
330
1DD
100
AcDbEntity
  8
Spigoli visibili(ISO)
100
AcDbVertex
100
AcDb2dVertex
 10
318.7793860278388
 20
477.4031171006659
 30
0.0
  0
VERTEX
  5
1E1
330
1DD
100
AcDbEntity
  8
Spigoli visibili(ISO)
100
AcDbVertex
100
AcDb2dVertex
 10
319.3278529188892
 20
477.5656650378897
 30
0.0
  0
VERTEX
  5
1E2
330
1DD
100
AcDbEntity
  8
Spigoli visibili(ISO)
100
AcDbVertex
100
AcDb2dVertex
 10
319.8598439685365
 20
477.709668951035
 30
0.0
  0
VERTEX
  5
1E3
330
1DD
100
AcDbEntity
  8
Spigoli visibili(ISO)
100
AcDbVertex
100
AcDb2dVertex
 10
320.3774869135878
 20
477.836120482483
 30
0.0
  0
VERTEX
  5
1E4
330
1DD
100
AcDbEntity
  8
Spigoli visibili(ISO)
100
AcDbVertex
100
AcDb2dVertex
 10
320.8827429703733
 20
477.9458734729237
 30
0.0
  0
VERTEX
  5
1E5
330
1DD
100
AcDbEntity
  8
Spigoli visibili(ISO)
100
AcDbVertex
100
AcDb2dVertex
 10
321.3774341038725
 20
478.0396414872235
 30
0.0
  0
VERTEX
  5
1E6
330
1DD
100
AcDbEntity
  8
Spigoli visibili(ISO)
100
AcDbVertex
100
AcDb2dVertex
 10
321.8632670930883
 20
478.1180300756144
 30
0.0
  0
VERTEX
  5
1E7
330
1DD
100
AcDbEntity
  8
Spigoli visibili(ISO)
100
AcDbVertex
100
AcDb2dVertex
 10
322.3418539456389
 20
478.1815152662339
 30
0.0
  0
VERTEX
  5
1E8
330
1DD
100
AcDbEntity
  8
Spigoli visibili(ISO)
100
AcDbVertex
100
AcDb2dVertex
 10
322.8147306732199
 20
478.2304969539109
 30
0.0
  0
VERTEX
  5
1E9
330
1DD
100
AcDbEntity
  8
Spigoli visibili(ISO)
100
AcDbVertex
100
AcDb2dVertex
 10
323.2833748749754
 20
478.265272824305
 30
0.0
  0
VERTEX
  5
1EA
330
1DD
100
AcDbEntity
  8
Spigoli visibili(ISO)
100
AcDbVertex
100
AcDb2dVertex
 10
323.7492203406355
 20
478.2860586243008
 30
0.0
  0
VERTEX
  5
1EB
330
1DD
100
AcDbEntity
  8
Spigoli visibili(ISO)
100
AcDbVertex
100
AcDb2dVertex
 10
324.2136740378401
 20
478.2929712229486
 30
0.0
  0
VERTEX
  5
1EC
330
1DD
100
AcDbEntity
  8
Spigoli visibili(ISO)
100
AcDbVertex
100
AcDb2dVertex
 10
324.6781277350446
 20
478.2860550671869
 30
0.0
  0
VERTEX
  5
1ED
330
1DD
100
AcDbEntity
  8
Spigoli visibili(ISO)
100
AcDbVertex
100
AcDb2dVertex
 10
325.1439732007047
 20
478.2652677169154
 30
0.0
  0
VERTEX
  5
1EE
330
1DD
100
AcDbEntity
  8
Spigoli visibili(ISO)
100
AcDbVertex
100
AcDb2dVertex
 10
325.6126177004835
 20
478.2304988783226
 30
0.0
  0
VERTEX
  5
1EF
330
1DD
100
AcDbEntity
  8
Spigoli visibili(ISO)
100
AcDbVertex
100
AcDb2dVertex
 10
326.0854941300413
 20
478.1815120668375
 30
0.0
  0
VERTEX
  5
1F0
330
1DD
100
AcDbEntity
  8
Spigoli visibili(ISO)
100
AcDbVertex
100
AcDb2dVertex
 10
326.564081280615
 20
478.1180244516368
 30
0.0
  0
VERTEX
  5
1F1
330
1DD
100
AcDbEntity
  8
Spigoli visibili(ISO)
100
AcDbVertex
100
AcDb2dVertex
 10
327.0499139718077
 20
478.0396435703336
 30
0.0
  0
VERTEX
  5
1F2
330
1DD
100
AcDbEntity
  8
Spigoli visibili(ISO)
100
AcDbVertex
100
AcDb2dVertex
 10
327.5446057013533
 20
477.9458768456412
 30
0.0
  0
VERTEX
  5
1F3
330
1DD
100
AcDbEntity
  8
Spigoli visibili(ISO)
100
AcDbVertex
100
AcDb2dVertex
 10
328.0498617581388
 20
477.8361270169727
 30
0.0
  0
VERTEX
  5
1F4
330
1DD
100
AcDbEntity
  8
Spigoli visibili(ISO)
100
AcDbVertex
100
AcDb2dVertex
 10
328.5675048522016
 20
477.7096656847187
 30
0.0
  0
VERTEX
  5
1F5
330
1DD
100
AcDbEntity
  8
Spigoli visibili(ISO)
100
AcDbVertex
100
AcDb2dVertex
 10
329.0994953803083
 20
477.56566433437
 30
0.0
  0
VERTEX
  5
1F6
330
1DD
100
AcDbEntity
  8
Spigoli visibili(ISO)
100
AcDbVertex
100
AcDb2dVertex
 10
329.6479618243238
 20
477.403126482806
 30
0.0
  0
VERTEX
  5
1F7
330
1DD
100
AcDbEntity
  8
Spigoli visibili(ISO)
100
AcDbVertex
100
AcDb2dVertex
 10
330.2152299574873
 20
477.2208922466957
 30
0.0
  0
SEQEND
  5
1E0
330
1DD
100
AcDbEntity
  8
Spigoli visibili(ISO)
  0
POLYLINE
  5
1F8
330
6C
100
AcDbEntity
  8
Spigoli visibili(ISO)
100
AcDb2dPolyline
 66
     1
 10
0.0
 20
0.0
 30
0.0
 70
   128
  0
VERTEX
  5
1F9
330
1F8
100
AcDbEntity
  8
Spigoli visibili(ISO)
100
AcDbVertex
100
AcDb2dVertex
 10
330.2152299574873
 20
471.3686409614093
 30
0.0
  0
VERTEX
  5
1FA
330
1F8
100
AcDbEntity
  8
Spigoli visibili(ISO)
100
AcDbVertex
100
AcDb2dVertex
 10
329.6479618243238
 20
471.1864137505673
 30
0.0
  0
VERTEX
  5
1FC
330
1F8
100
AcDbEntity
  8
Spigoli visibili(ISO)
100
AcDbVertex
100
AcDb2dVertex
 10
329.0994953803083
 20
471.0238658133434
 30
0.0
  0
VERTEX
  5
1FD
330
1F8
100
AcDbEntity
  8
Spigoli visibili(ISO)
100
AcDbVertex
100
AcDb2dVertex
 10
328.5675048522016
 20
470.8798619001981
 30
0.0
  0
VERTEX
  5
1FE
330
1F8
100
AcDbEntity
  8
Spigoli visibili(ISO)
100
AcDbVertex
100
AcDb2dVertex
 10
328.0498617581388
 20
470.7534103687502
 30
0.0
  0
VERTEX
  5
1FF
330
1F8
100
AcDbEntity
  8
Spigoli visibili(ISO)
100
AcDbVertex
100
AcDb2dVertex
 10
327.5446057013533
 20
470.6436586153753
 30
0.0
  0
VERTEX
  5
200
330
1F8
100
AcDbEntity
  8
Spigoli visibili(ISO)
100
AcDbVertex
100
AcDb2dVertex
 10
327.0499139718077
 20
470.5498798473459
 30
0.0
  0
VERTEX
  5
201
330
1F8
100
AcDbEntity
  8
Spigoli visibili(ISO)
100
AcDbVertex
100
AcDb2dVertex
 10
326.564081280615
 20
470.4715007756187
 30
0.0
  0
VERTEX
  5
202
330
1F8
100
AcDbEntity
  8
Spigoli visibili(ISO)
100
AcDbVertex
100
AcDb2dVertex
 10
326.0854941300413
 20
470.4080155849992
 30
0.0
  0
VERTEX
  5
203
330
1F8
100
AcDbEntity
  8
Spigoli visibili(ISO)
100
AcDbVertex
100
AcDb2dVertex
 10
325.6126177004835
 20
470.3590351343881
 30
0.0
  0
VERTEX
  5
204
330
1F8
100
AcDbEntity
  8
Spigoli visibili(ISO)
100
AcDbVertex
100
AcDb2dVertex
 10
325.1439732007047
 20
470.3242580269281
 30
0.0
  0
VERTEX
  5
205
330
1F8
100
AcDbEntity
  8
Spigoli visibili(ISO)
100
AcDbVertex
100
AcDb2dVertex
 10
324.6781277350446
 20
470.3034734639982
 30
0.0
  0
VERTEX
  5
206
330
1F8
100
AcDbEntity
  8
Spigoli visibili(ISO)
100
AcDbVertex
100
AcDb2dVertex
 10
324.2136740378401
 20
470.2965608653504
 30
0.0
  0
VERTEX
  5
207
330
1F8
100
AcDbEntity
  8
Spigoli visibili(ISO)
100
AcDbVertex
100
AcDb2dVertex
 10
323.7492203406355
 20
470.3034757840463
 30
0.0
  0
VERTEX
  5
208
330
1F8
100
AcDbEntity
  8
Spigoli visibili(ISO)
100
AcDbVertex
100
AcDb2dVertex
 10
323.2833748749754
 20
470.3242631343178
 30
0.0
  0
VERTEX
  5
209
330
1F8
100
AcDbEntity
  8
Spigoli visibili(ISO)
100
AcDbVertex
100
AcDb2dVertex
 10
322.8147306732199
 20
470.3590332099763
 30
0.0
  0
VERTEX
  5
20A
330
1F8
100
AcDbEntity
  8
Spigoli visibili(ISO)
100
AcDbVertex
100
AcDb2dVertex
 10
322.3418539456389
 20
470.4080187843956
 30
0.0
  0
VERTEX
  5
20B
330
1F8
100
AcDbEntity
  8
Spigoli visibili(ISO)
100
AcDbVertex
100
AcDb2dVertex
 10
321.8632670930883
 20
470.4715063995963
 30
0.0
  0
VERTEX
  5
20C
330
1F8
100
AcDbEntity
  8
Spigoli visibili(ISO)
100
AcDbVertex
100
AcDb2dVertex
 10
321.3774341038725
 20
470.5498885179653
 30
0.0
  0
VERTEX
  5
20D
330
1F8
100
AcDbEntity
  8
Spigoli visibili(ISO)
100
AcDbVertex
100
AcDb2dVertex
 10
320.8827429703733
 20
470.643654005592
 30
0.0
  0
VERTEX
  5
20E
330
1F8
100
AcDbEntity
  8
Spigoli visibili(ISO)
100
AcDbVertex
100
AcDb2dVertex
 10
320.3774869135878
 20
470.7534038342604
 30
0.0
  0
VERTEX
  5
20F
330
1F8
100
AcDbEntity
  8
Spigoli visibili(ISO)
100
AcDbVertex
100
AcDb2dVertex
 10
319.8598439685365
 20
470.8798651665144
 30
0.0
  0
VERTEX
  5
210
330
1F8
100
AcDbEntity
  8
Spigoli visibili(ISO)
100
AcDbVertex
100
AcDb2dVertex
 10
319.3278529188892
 20
471.0238665168631
 30
0.0
  0
VERTEX
  5
211
330
1F8
100
AcDbEntity
  8
Spigoli visibili(ISO)
100
AcDbVertex
100
AcDb2dVertex
 10
318.7793860278388
 20
471.1864056054929
 30
0.0
  0
VERTEX
  5
212
330
1F8
100
AcDbEntity
  8
Spigoli visibili(ISO)
100
AcDbVertex
100
AcDb2dVertex
 10
318.2121181181928
 20
471.3686386045375
 30
0.0
  0
SEQEND
  5
1FB
330
1F8
100
AcDbEntity
  8
Spigoli visibili(ISO)
  0
LINE
  5
213
330
6C
100
AcDbEntity
  8
Spigoli visibili(ISO)
100
AcDbLine
 10
330.215230214645
 20
471.3686370649898
 30
0.0
 11
330.215230214645
 21
477.2208940636044
 31
0.0
  0
LINE
  5
214
330
6C
100
AcDbEntity
  8
Spigoli visibili(ISO)
100
AcDbLine
 10
330.2152299574873
 20
477.2208922466957
 30
0.0
 11
330.2152299574873
 21
478.2929735211905
 31
0.0
  0
LINE
  5
215
330
6C
100
AcDbEntity
  8
Spigoli visibili(ISO)
100
AcDbLine
 10
330.2152299574871
 20
470.2965631635925
 30
0.0
 11
330.2152299574873
 21
471.3686409614093
 31
0.0
  0
LINE
  5
216
330
6C
100
AcDbEntity
  8
Spigoli visibili(ISO)
100
AcDbLine
 10
306.2090062788984
 20
478.2929735211905
 30
0.0
 11
306.2090062788984
 21
477.2208922466957
 31
0.0
  0
LINE
  5
217
330
6C
100
AcDbEntity
  8
Spigoli visibili(ISO)
100
AcDbLine
 10
306.2090062788984
 20
471.3686409614093
 30
0.0
 11
306.2090062788984
 21
470.2965631635925
 31
0.0
  0
LINE
  5
218
330
6C
100
AcDbEntity
  8
Spigoli visibili(ISO)
100
AcDbLine
 10
330.2121181181928
 20
478.2947655642971
 30
0.0
 11
306.2121181181928
 21
478.2947655642971
 31
0.0
  0
LINE
  5
219
330
6C
100
AcDbEntity
  8
Spigoli visibili(ISO)
100
AcDbLine
 10
306.2121181181928
 20
470.2947655642971
 30
0.0
 11
306.2090060217406
 21
470.2965623340215
 31
0.0
  0
LINE
  5
21A
330
6C
100
AcDbEntity
  8
Spigoli visibili(ISO)
100
AcDbLine
 10
330.2121181181928
 20
470.2947655642971
 30
0.0
 11
330.215230214645
 21
470.2965623340215
 31
0.0
  0
LINE
  5
21B
330
6C
100
AcDbEntity
  8
Spigoli visibili(ISO)
100
AcDbLine
 10
330.2121181181927
 20
478.2947655642971
 30
0.0
 11
330.215230214645
 21
478.2929687945726
 31
0.0
  0
LINE
  5
21C
330
6C
100
AcDbEntity
  8
Spigoli visibili(ISO)
100
AcDbLine
 10
306.2121181181928
 20
478.2947655642971
 30
0.0
 11
306.2090060217406
 21
478.2929687945726
 31
0.0
  0
POLYLINE
  5
21D
330
6C
100
AcDbEntity
  8
Spigoli visibili(ISO)
100
AcDb2dPolyline
 66
     1
 10
0.0
 20
0.0
 30
0.0
 70
   128
  0
VERTEX
  5
21E
330
21D
100
AcDbEntity
  8
Spigoli visibili(ISO)
100
AcDbVertex
100
AcDb2dVertex
 10
330.7525724528634
 20
471.3686388818985
 30
0.0
  0
VERTEX
  5
21F
330
21D
100
AcDbEntity
  8
Spigoli visibili(ISO)
100
AcDbVertex
100
AcDb2dVertex
 10
330.729817783674
 20
471.3610666394248
 30
0.0
  0
VERTEX
  5
221
330
21D
100
AcDbEntity
  8
Spigoli visibili(ISO)
100
AcDbVertex
100
AcDb2dVertex
 10
330.7070953009927
 20
471.3535241840077
 30
0.0
  0
VERTEX
  5
222
330
21D
100
AcDbEntity
  8
Spigoli visibili(ISO)
100
AcDbVertex
100
AcDb2dVertex
 10
330.6844050048196
 20
471.3460115156477
 30
0.0
  0
VERTEX
  5
223
330
21D
100
AcDbEntity
  8
Spigoli visibili(ISO)
100
AcDbVertex
100
AcDb2dVertex
 10
330.6617480872476
 20
471.338538151008
 30
0.0
  0
VERTEX
  5
224
330
21D
100
AcDbEntity
  8
Spigoli visibili(ISO)
100
AcDbVertex
100
AcDb2dVertex
 10
330.6391245482767
 20
471.3310862938271
 30
0.0
  0
VERTEX
  5
225
330
21D
100
AcDbEntity
  8
Spigoli visibili(ISO)
100
AcDbVertex
100
AcDb2dVertex
 10
330.616532003721
 20
471.3236820199647
 30
0.0
  0
VERTEX
  5
226
330
21D
100
AcDbEntity
  8
Spigoli visibili(ISO)
100
AcDbVertex
100
AcDb2dVertex
 10
330.5939728377664
 20
471.3162980164953
 30
0.0
  0
VERTEX
  5
227
330
21D
100
AcDbEntity
  8
Spigoli visibili(ISO)
100
AcDbVertex
100
AcDb2dVertex
 10
330.5714446662271
 20
471.3089450371486
 30
0.0
  0
VERTEX
  5
228
330
21D
100
AcDbEntity
  8
Spigoli visibili(ISO)
100
AcDbVertex
100
AcDb2dVertex
 10
330.548948681196
 20
471.3016313615224
 30
0.0
  0
VERTEX
  5
229
330
21D
100
AcDbEntity
  8
Spigoli visibili(ISO)
100
AcDbVertex
100
AcDb2dVertex
 10
330.526484882673
 20
471.2943462358869
 30
0.0
  0
VERTEX
  5
22A
330
21D
100
AcDbEntity
  8
Spigoli visibili(ISO)
100
AcDbVertex
100
AcDb2dVertex
 10
330.5040520785653
 20
471.2870921343742
 30
0.0
  0
VERTEX
  5
22B
330
21D
100
AcDbEntity
  8
Spigoli visibili(ISO)
100
AcDbVertex
100
AcDb2dVertex
 10
330.4816514609659
 20
471.2798773365819
 30
0.0
  0
VERTEX
  5
22C
330
21D
100
AcDbEntity
  8
Spigoli visibili(ISO)
100
AcDbVertex
100
AcDb2dVertex
 10
330.4592806456887
 20
471.2726828091827
 30
0.0
  0
VERTEX
  5
22D
330
21D
100
AcDbEntity
  8
Spigoli visibili(ISO)
100
AcDbVertex
100
AcDb2dVertex
 10
330.4369420169198
 20
471.2655263484383
 30
0.0
  0
VERTEX
  5
22E
330
21D
100
AcDbEntity
  8
Spigoli visibili(ISO)
100
AcDbVertex
100
AcDb2dVertex
 10
330.4146343825662
 20
471.2584009118163
 30
0.0
  0
VERTEX
  5
22F
330
21D
100
AcDbEntity
  8
Spigoli visibili(ISO)
100
AcDbVertex
100
AcDb2dVertex
 10
330.3923577426278
 20
471.2513052622512
 30
0.0
  0
VERTEX
  5
230
330
21D
100
AcDbEntity
  8
Spigoli visibili(ISO)
100
AcDbVertex
100
AcDb2dVertex
 10
330.3701109050119
 20
471.2442489164065
 30
0.0
  0
VERTEX
  5
231
330
21D
100
AcDbEntity
  8
Spigoli visibili(ISO)
100
AcDbVertex
100
AcDb2dVertex
 10
330.3478950618112
 20
471.2372128409549
 30
0.0
  0
VERTEX
  5
232
330
21D
100
AcDbEntity
  8
Spigoli visibili(ISO)
100
AcDbVertex
100
AcDb2dVertex
 10
330.3257090209329
 20
471.2302160692239
 30
0.0
  0
VERTEX
  5
233
330
21D
100
AcDbEntity
  8
Spigoli visibili(ISO)
100
AcDbVertex
100
AcDb2dVertex
 10
330.3035539744699
 20
471.2232408049517
 30
0.0
  0
VERTEX
  5
234
330
21D
100
AcDbEntity
  8
Spigoli visibili(ISO)
100
AcDbVertex
100
AcDb2dVertex
 10
330.2814287303292
 20
471.2163036073341
 30
0.0
  0
VERTEX
  5
235
330
21D
100
AcDbEntity
  8
Spigoli visibili(ISO)
100
AcDbVertex
100
AcDb2dVertex
 10
330.2593320964181
 20
471.2093961967735
 30
0.0
  0
VERTEX
  5
236
330
21D
100
AcDbEntity
  8
Spigoli visibili(ISO)
100
AcDbVertex
100
AcDb2dVertex
 10
330.2372664569223
 20
471.2025185732694
 30
0.0
  0
VERTEX
  5
237
330
21D
100
AcDbEntity
  8
Spigoli visibili(ISO)
100
AcDbVertex
100
AcDb2dVertex
 10
330.2152306197488
 20
471.1956707368223
 30
0.0
  0
SEQEND
  5
220
330
21D
100
AcDbEntity
  8
Spigoli visibili(ISO)
  0
LINE
  5
238
330
6C
100
AcDbEntity
  8
Spigoli visibili(ISO)
100
AcDbLine
 10
330.7525727100213
 20
471.3686370649899
 30
0.0
 11
330.7525727100213
 21
477.2208940636045
 31
0.0
  0
POLYLINE
  5
239
330
6C
100
AcDbEntity
  8
Spigoli visibili(ISO)
100
AcDb2dPolyline
 66
     1
 10
0.0
 20
0.0
 30
0.0
 70
   128
  0
VERTEX
  5
23A
330
239
100
AcDbEntity
  8
Spigoli visibili(ISO)
100
AcDbVertex
100
AcDb2dVertex
 10
330.2152306197488
 20
477.3938610026756
 30
0.0
  0
VERTEX
  5
23B
330
239
100
AcDbEntity
  8
Spigoli visibili(ISO)
100
AcDbVertex
100
AcDb2dVertex
 10
330.2372664569223
 20
477.3870145550704
 30
0.0
  0
VERTEX
  5
23D
330
239
100
AcDbEntity
  8
Spigoli visibili(ISO)
100
AcDbVertex
100
AcDb2dVertex
 10
330.2593320964181
 20
477.3801395574742
 30
0.0
  0
VERTEX
  5
23E
330
239
100
AcDbEntity
  8
Spigoli visibili(ISO)
100
AcDbVertex
100
AcDb2dVertex
 10
330.2814287303292
 20
477.373227730289
 30
0.0
  0
VERTEX
  5
23F
330
239
100
AcDbEntity
  8
Spigoli visibili(ISO)
100
AcDbVertex
100
AcDb2dVertex
 10
330.3035539744699
 20
477.3662873531129
 30
0.0
  0
VERTEX
  5
240
330
239
100
AcDbEntity
  8
Spigoli visibili(ISO)
100
AcDbVertex
100
AcDb2dVertex
 10
330.3257090209329
 20
477.3593209000775
 30
0.0
  0
VERTEX
  5
241
330
239
100
AcDbEntity
  8
Spigoli visibili(ISO)
100
AcDbVertex
100
AcDb2dVertex
 10
330.3478950618112
 20
477.3523163803875
 30
0.0
  0
VERTEX
  5
242
330
239
100
AcDbEntity
  8
Spigoli visibili(ISO)
100
AcDbVertex
100
AcDb2dVertex
 10
330.3701109050119
 20
477.3452845477723
 30
0.0
  0
VERTEX
  5
243
330
239
100
AcDbEntity
  8
Spigoli visibili(ISO)
100
AcDbVertex
100
AcDb2dVertex
 10
330.3923577426278
 20
477.3382254022318
 30
0.0
  0
VERTEX
  5
244
330
239
100
AcDbEntity
  8
Spigoli visibili(ISO)
100
AcDbVertex
100
AcDb2dVertex
 10
330.4146343825662
 20
477.3311294271025
 30
0.0
  0
VERTEX
  5
245
330
239
100
AcDbEntity
  8
Spigoli visibili(ISO)
100
AcDbVertex
100
AcDb2dVertex
 10
330.4369420169198
 20
477.3240061390481
 30
0.0
  0
VERTEX
  5
246
330
239
100
AcDbEntity
  8
Spigoli visibili(ISO)
100
AcDbVertex
100
AcDb2dVertex
 10
330.4592806456887
 20
477.3168447843391
 30
0.0
  0
VERTEX
  5
247
330
239
100
AcDbEntity
  8
Spigoli visibili(ISO)
100
AcDbVertex
100
AcDb2dVertex
 10
330.4816514609659
 20
477.3096573537706
 30
0.0
  0
VERTEX
  5
248
330
239
100
AcDbEntity
  8
Spigoli visibili(ISO)
100
AcDbVertex
100
AcDb2dVertex
 10
330.5040520785653
 20
477.3024318565475
 30
0.0
  0
VERTEX
  5
249
330
239
100
AcDbEntity
  8
Spigoli visibili(ISO)
100
AcDbVertex
100
AcDb2dVertex
 10
330.526484882673
 20
477.2951790463992
 30
0.0
  0
VERTEX
  5
24A
330
239
100
AcDbEntity
  8
Spigoli visibili(ISO)
100
AcDbVertex
100
AcDb2dVertex
 10
330.548948681196
 20
477.2878976862601
 30
0.0
  0
VERTEX
  5
24B
330
239
100
AcDbEntity
  8
Spigoli visibili(ISO)
100
AcDbVertex
100
AcDb2dVertex
 10
330.5714446662271
 20
477.2805807335979
 30
0.0
  0
VERTEX
  5
24C
330
239
100
AcDbEntity
  8
Spigoli visibili(ISO)
100
AcDbVertex
100
AcDb2dVertex
 10
330.5939728377664
 20
477.2732352309446
 30
0.0
  0
VERTEX
  5
24D
330
239
100
AcDbEntity
  8
Spigoli visibili(ISO)
100
AcDbVertex
100
AcDb2dVertex
 10
330.616532003721
 20
477.2658541357683
 30
0.0
  0
VERTEX
  5
24E
330
239
100
AcDbEntity
  8
Spigoli visibili(ISO)
100
AcDbVertex
100
AcDb2dVertex
 10
330.6391245482767
 20
477.258444490601
 30
0.0
  0
VERTEX
  5
24F
330
239
100
AcDbEntity
  8
Spigoli visibili(ISO)
100
AcDbVertex
100
AcDb2dVertex
 10
330.6617480872476
 20
477.250998015845
 30
0.0
  0
VERTEX
  5
250
330
239
100
AcDbEntity
  8
Spigoli visibili(ISO)
100
AcDbVertex
100
AcDb2dVertex
 10
330.6844050048196
 20
477.2435147115001
 30
0.0
  0
VERTEX
  5
251
330
239
100
AcDbEntity
  8
Spigoli visibili(ISO)
100
AcDbVertex
100
AcDb2dVertex
 10
330.7070953009927
 20
477.2360136108937
 30
0.0
  0
VERTEX
  5
252
330
239
100
AcDbEntity
  8
Spigoli visibili(ISO)
100
AcDbVertex
100
AcDb2dVertex
 10
330.729817783674
 20
477.2284661640347
 30
0.0
  0
VERTEX
  5
253
330
239
100
AcDbEntity
  8
Spigoli visibili(ISO)
100
AcDbVertex
100
AcDb2dVertex
 10
330.7525724528634
 20
477.2208901671848
 30
0.0
  0
SEQEND
  5
23C
330
239
100
AcDbEntity
  8
Spigoli visibili(ISO)
  0
LINE
  5
254
330
6C
100
AcDbEntity
  8
Spigoli visibili(ISO)
100
AcDbLine
 10
330.7525724528634
 20
470.2965576074036
 30
0.0
 11
330.7525724528634
 21
471.3686388818985
 31
0.0
  0
LINE
  5
255
330
6C
100
AcDbEntity
  8
Spigoli visibili(ISO)
100
AcDbLine
 10
330.7525724528634
 20
477.2208901671848
 30
0.0
 11
330.7525724528634
 21
478.2929679650018
 31
0.0
  0
LINE
  5
256
330
6C
100
AcDbEntity
  8
Spigoli visibili(ISO)
100
AcDbLine
 10
330.2121181181928
 20
478.2947655642971
 30
0.0
 11
330.749460613569
 21
478.2947655642971
 31
0.0
  0
LINE
  5
257
330
6C
100
AcDbEntity
  8
Spigoli visibili(ISO)
100
AcDbLine
 10
330.749460613569
 20
478.2947655642971
 30
0.0
 11
330.7525727100213
 21
478.2929687945727
 31
0.0
  0
LINE
  5
258
330
6C
100
AcDbEntity
  8
Spigoli visibili(ISO)
100
AcDbLine
 10
330.749460613569
 20
470.2947655642971
 30
0.0
 11
330.7525727100212
 21
470.2965623340216
 31
0.0
  0
LINE
  5
259
330
6C
100
AcDbEntity
  8
Spigoli visibili(ISO)
100
AcDbLine
 10
156.7463487742745
 20
478.2929735211905
 30
0.0
 11
156.7463487742745
 21
477.2208957233736
 31
0.0
  0
LINE
  5
25A
330
6C
100
AcDbEntity
  8
Spigoli visibili(ISO)
100
AcDbLine
 10
156.7463487742745
 20
471.3686349214237
 30
0.0
 11
156.7463487742745
 21
470.2965631635924
 31
0.0
  0
LINE
  5
25B
330
6C
100
AcDbEntity
  8
Spigoli visibili(ISO)
100
AcDbLine
 10
156.7463485171167
 20
477.2208940636044
 30
0.0
 11
156.7463485171167
 21
471.3686370649898
 31
0.0
  0
POLYLINE
  5
25C
330
6C
100
AcDbEntity
  8
Spigoli visibili(ISO)
100
AcDb2dPolyline
 66
     1
 10
0.0
 20
0.0
 30
0.0
 70
   128
  0
VERTEX
  5
25D
330
25C
100
AcDbEntity
  8
Spigoli visibili(ISO)
100
AcDbVertex
100
AcDb2dVertex
 10
156.7463487742745
 20
477.2208957233736
 30
0.0
  0
VERTEX
  5
25E
330
25C
100
AcDbEntity
  8
Spigoli visibili(ISO)
100
AcDbVertex
100
AcDb2dVertex
 10
157.313616907438
 20
477.4031229342157
 30
0.0
  0
VERTEX
  5
260
330
25C
100
AcDbEntity
  8
Spigoli visibili(ISO)
100
AcDbVertex
100
AcDb2dVertex
 10
157.8620833514535
 20
477.5656601177101
 30
0.0
  0
VERTEX
  5
261
330
25C
100
AcDbEntity
  8
Spigoli visibili(ISO)
100
AcDbVertex
100
AcDb2dVertex
 10
158.3940738795602
 20
477.7096652679212
 30
0.0
  0
VERTEX
  5
262
330
25C
100
AcDbEntity
  8
Spigoli visibili(ISO)
100
AcDbVertex
100
AcDb2dVertex
 10
158.911716973623
 20
477.8361263160329
 30
0.0
  0
VERTEX
  5
263
330
25C
100
AcDbEntity
  8
Spigoli visibili(ISO)
100
AcDbVertex
100
AcDb2dVertex
 10
159.4169730304086
 20
477.9458780694077
 30
0.0
  0
VERTEX
  5
264
330
25C
100
AcDbEntity
  8
Spigoli visibili(ISO)
100
AcDbVertex
100
AcDb2dVertex
 10
159.9116647599542
 20
478.0396460837076
 30
0.0
  0
VERTEX
  5
265
330
25C
100
AcDbEntity
  8
Spigoli visibili(ISO)
100
AcDbVertex
100
AcDb2dVertex
 10
160.3974974511468
 20
478.1180263925006
 30
0.0
  0
VERTEX
  5
266
330
25C
100
AcDbEntity
  8
Spigoli visibili(ISO)
100
AcDbVertex
100
AcDb2dVertex
 10
160.8760846017205
 20
478.1815103460543
 30
0.0
  0
VERTEX
  5
267
330
25C
100
AcDbEntity
  8
Spigoli visibili(ISO)
100
AcDbVertex
100
AcDb2dVertex
 10
161.3489610312783
 20
478.2304920337312
 30
0.0
  0
VERTEX
  5
268
330
25C
100
AcDbEntity
  8
Spigoli visibili(ISO)
100
AcDbVertex
100
AcDb2dVertex
 10
161.8176055310571
 20
478.2652679041254
 30
0.0
  0
VERTEX
  5
269
330
25C
100
AcDbEntity
  8
Spigoli visibili(ISO)
100
AcDbVertex
100
AcDb2dVertex
 10
162.2834509967172
 20
478.2860537041211
 30
0.0
  0
VERTEX
  5
26A
330
25C
100
AcDbEntity
  8
Spigoli visibili(ISO)
100
AcDbVertex
100
AcDb2dVertex
 10
162.7479046939218
 20
478.2929663027689
 30
0.0
  0
VERTEX
  5
26B
330
25C
100
AcDbEntity
  8
Spigoli visibili(ISO)
100
AcDbVertex
100
AcDb2dVertex
 10
163.2123583911264
 20
478.2860501470072
 30
0.0
  0
VERTEX
  5
26C
330
25C
100
AcDbEntity
  8
Spigoli visibili(ISO)
100
AcDbVertex
100
AcDb2dVertex
 10
163.6782038567864
 20
478.2652723133995
 30
0.0
  0
VERTEX
  5
26D
330
25C
100
AcDbEntity
  8
Spigoli visibili(ISO)
100
AcDbVertex
100
AcDb2dVertex
 10
164.146848058542
 20
478.2304939581429
 30
0.0
  0
VERTEX
  5
26E
330
25C
100
AcDbEntity
  8
Spigoli visibili(ISO)
100
AcDbVertex
100
AcDb2dVertex
 10
164.619724786123
 20
478.1815083837236
 30
0.0
  0
VERTEX
  5
26F
330
25C
100
AcDbEntity
  8
Spigoli visibili(ISO)
100
AcDbVertex
100
AcDb2dVertex
 10
165.0983116386735
 20
478.1180302851867
 30
0.0
  0
VERTEX
  5
270
330
25C
100
AcDbEntity
  8
Spigoli visibili(ISO)
100
AcDbVertex
100
AcDb2dVertex
 10
165.5841446278893
 20
478.0396481668176
 30
0.0
  0
VERTEX
  5
271
330
25C
100
AcDbEntity
  8
Spigoli visibili(ISO)
100
AcDbVertex
100
AcDb2dVertex
 10
166.0788357613885
 20
477.9458814421253
 30
0.0
  0
VERTEX
  5
272
330
25C
100
AcDbEntity
  8
Spigoli visibili(ISO)
100
AcDbVertex
100
AcDb2dVertex
 10
166.5840918181741
 20
477.8361220967931
 30
0.0
  0
VERTEX
  5
273
330
25C
100
AcDbEntity
  8
Spigoli visibili(ISO)
100
AcDbVertex
100
AcDb2dVertex
 10
167.1017347632253
 20
477.7096715182685
 30
0.0
  0
VERTEX
  5
274
330
25C
100
AcDbEntity
  8
Spigoli visibili(ISO)
100
AcDbVertex
100
AcDb2dVertex
 10
167.6337258128726
 20
477.5656594141904
 30
0.0
  0
VERTEX
  5
275
330
25C
100
AcDbEntity
  8
Spigoli visibili(ISO)
100
AcDbVertex
100
AcDb2dVertex
 10
168.1821927039229
 20
477.4031215626264
 30
0.0
  0
VERTEX
  5
276
330
25C
100
AcDbEntity
  8
Spigoli visibili(ISO)
100
AcDbVertex
100
AcDb2dVertex
 10
168.7494606135689
 20
477.2208968431796
 30
0.0
  0
SEQEND
  5
25F
330
25C
100
AcDbEntity
  8
Spigoli visibili(ISO)
  0
POLYLINE
  5
277
330
6C
100
AcDbEntity
  8
Spigoli visibili(ISO)
100
AcDb2dPolyline
 66
     1
 10
0.0
 20
0.0
 30
0.0
 70
   128
  0
VERTEX
  5
278
330
277
100
AcDbEntity
  8
Spigoli visibili(ISO)
100
AcDbVertex
100
AcDb2dVertex
 10
168.7494606135689
 20
471.3686360412298
 30
0.0
  0
VERTEX
  5
279
330
277
100
AcDbEntity
  8
Spigoli visibili(ISO)
100
AcDbVertex
100
AcDb2dVertex
 10
168.1821927039229
 20
471.1864088303877
 30
0.0
  0
VERTEX
  5
27B
330
277
100
AcDbEntity
  8
Spigoli visibili(ISO)
100
AcDbVertex
100
AcDb2dVertex
 10
167.6337258128726
 20
471.0238716468932
 30
0.0
  0
VERTEX
  5
27C
330
277
100
AcDbEntity
  8
Spigoli visibili(ISO)
100
AcDbVertex
100
AcDb2dVertex
 10
167.1017347632253
 20
470.8798664966821
 30
0.0
  0
VERTEX
  5
27D
330
277
100
AcDbEntity
  8
Spigoli visibili(ISO)
100
AcDbVertex
100
AcDb2dVertex
 10
166.5840918181741
 20
470.7534054485705
 30
0.0
  0
VERTEX
  5
27E
330
277
100
AcDbEntity
  8
Spigoli visibili(ISO)
100
AcDbVertex
100
AcDb2dVertex
 10
166.0788357613885
 20
470.6436536951956
 30
0.0
  0
VERTEX
  5
27F
330
277
100
AcDbEntity
  8
Spigoli visibili(ISO)
100
AcDbVertex
100
AcDb2dVertex
 10
165.5841446278893
 20
470.5498856808957
 30
0.0
  0
VERTEX
  5
280
330
277
100
AcDbEntity
  8
Spigoli visibili(ISO)
100
AcDbVertex
100
AcDb2dVertex
 10
165.0983116386735
 20
470.4715053721027
 30
0.0
  0
VERTEX
  5
281
330
277
100
AcDbEntity
  8
Spigoli visibili(ISO)
100
AcDbVertex
100
AcDb2dVertex
 10
164.619724786123
 20
470.408021418549
 30
0.0
  0
VERTEX
  5
282
330
277
100
AcDbEntity
  8
Spigoli visibili(ISO)
100
AcDbVertex
100
AcDb2dVertex
 10
164.146848058542
 20
470.3590397308722
 30
0.0
  0
VERTEX
  5
283
330
277
100
AcDbEntity
  8
Spigoli visibili(ISO)
100
AcDbVertex
100
AcDb2dVertex
 10
163.6782038567864
 20
470.3242626234121
 30
0.0
  0
VERTEX
  5
284
330
277
100
AcDbEntity
  8
Spigoli visibili(ISO)
100
AcDbVertex
100
AcDb2dVertex
 10
163.2123583911264
 20
470.3034780604822
 30
0.0
  0
VERTEX
  5
285
330
277
100
AcDbEntity
  8
Spigoli visibili(ISO)
100
AcDbVertex
100
AcDb2dVertex
 10
162.7479046939218
 20
470.2965654618345
 30
0.0
  0
VERTEX
  5
286
330
277
100
AcDbEntity
  8
Spigoli visibili(ISO)
100
AcDbVertex
100
AcDb2dVertex
 10
162.2834509967172
 20
470.3034721009325
 30
0.0
  0
VERTEX
  5
287
330
277
100
AcDbEntity
  8
Spigoli visibili(ISO)
100
AcDbVertex
100
AcDb2dVertex
 10
161.8176055310571
 20
470.3242594512039
 30
0.0
  0
VERTEX
  5
288
330
277
100
AcDbEntity
  8
Spigoli visibili(ISO)
100
AcDbVertex
100
AcDb2dVertex
 10
161.3489610312783
 20
470.3590378064604
 30
0.0
  0
VERTEX
  5
289
330
277
100
AcDbEntity
  8
Spigoli visibili(ISO)
100
AcDbVertex
100
AcDb2dVertex
 10
160.8760846017205
 20
470.4080138642161
 30
0.0
  0
VERTEX
  5
28A
330
277
100
AcDbEntity
  8
Spigoli visibili(ISO)
100
AcDbVertex
100
AcDb2dVertex
 10
160.3974974511468
 20
470.4715014794167
 30
0.0
  0
VERTEX
  5
28B
330
277
100
AcDbEntity
  8
Spigoli visibili(ISO)
100
AcDbVertex
100
AcDb2dVertex
 10
159.9116647599542
 20
470.5498835977858
 30
0.0
  0
VERTEX
  5
28C
330
277
100
AcDbEntity
  8
Spigoli visibili(ISO)
100
AcDbVertex
100
AcDb2dVertex
 10
159.4169730304086
 20
470.6436490854123
 30
0.0
  0
VERTEX
  5
28D
330
277
100
AcDbEntity
  8
Spigoli visibili(ISO)
100
AcDbVertex
100
AcDb2dVertex
 10
158.911716973623
 20
470.7534084307445
 30
0.0
  0
VERTEX
  5
28E
330
277
100
AcDbEntity
  8
Spigoli visibili(ISO)
100
AcDbVertex
100
AcDb2dVertex
 10
158.3940738795602
 20
470.8798602463348
 30
0.0
  0
VERTEX
  5
28F
330
277
100
AcDbEntity
  8
Spigoli visibili(ISO)
100
AcDbVertex
100
AcDb2dVertex
 10
157.8620833514535
 20
471.0238711133472
 30
0.0
  0
VERTEX
  5
290
330
277
100
AcDbEntity
  8
Spigoli visibili(ISO)
100
AcDbVertex
100
AcDb2dVertex
 10
157.313616907438
 20
471.1864102019768
 30
0.0
  0
VERTEX
  5
291
330
277
100
AcDbEntity
  8
Spigoli visibili(ISO)
100
AcDbVertex
100
AcDb2dVertex
 10
156.7463487742745
 20
471.3686349214237
 30
0.0
  0
SEQEND
  5
27A
330
277
100
AcDbEntity
  8
Spigoli visibili(ISO)
  0
LINE
  5
292
330
6C
100
AcDbEntity
  8
Spigoli visibili(ISO)
100
AcDbLine
 10
168.7494606135689
 20
477.2208940636042
 30
0.0
 11
168.749460613569
 21
471.3686370649898
 31
0.0
  0
POLYLINE
  5
293
330
6C
100
AcDbEntity
  8
Spigoli visibili(ISO)
100
AcDb2dPolyline
 66
     1
 10
0.0
 20
0.0
 30
0.0
 70
   128
  0
VERTEX
  5
294
330
293
100
AcDbEntity
  8
Spigoli visibili(ISO)
100
AcDbVertex
100
AcDb2dVertex
 10
168.7494606135691
 20
477.2208968431796
 30
0.0
  0
VERTEX
  5
295
330
293
100
AcDbEntity
  8
Spigoli visibili(ISO)
100
AcDbVertex
100
AcDb2dVertex
 10
169.316728523215
 20
477.4031215626264
 30
0.0
  0
VERTEX
  5
297
330
293
100
AcDbEntity
  8
Spigoli visibili(ISO)
100
AcDbVertex
100
AcDb2dVertex
 10
169.8651954142653
 20
477.5656594141904
 30
0.0
  0
VERTEX
  5
298
330
293
100
AcDbEntity
  8
Spigoli visibili(ISO)
100
AcDbVertex
100
AcDb2dVertex
 10
170.3971864639127
 20
477.7096715182685
 30
0.0
  0
VERTEX
  5
299
330
293
100
AcDbEntity
  8
Spigoli visibili(ISO)
100
AcDbVertex
100
AcDb2dVertex
 10
170.9148294089639
 20
477.8361220967931
 30
0.0
  0
VERTEX
  5
29A
330
293
100
AcDbEntity
  8
Spigoli visibili(ISO)
100
AcDbVertex
100
AcDb2dVertex
 10
171.4200854657495
 20
477.9458814421253
 30
0.0
  0
VERTEX
  5
29B
330
293
100
AcDbEntity
  8
Spigoli visibili(ISO)
100
AcDbVertex
100
AcDb2dVertex
 10
171.9147765992486
 20
478.0396481668176
 30
0.0
  0
VERTEX
  5
29C
330
293
100
AcDbEntity
  8
Spigoli visibili(ISO)
100
AcDbVertex
100
AcDb2dVertex
 10
172.4006095884645
 20
478.1180302851867
 30
0.0
  0
VERTEX
  5
29D
330
293
100
AcDbEntity
  8
Spigoli visibili(ISO)
100
AcDbVertex
100
AcDb2dVertex
 10
172.879196441015
 20
478.1815083837236
 30
0.0
  0
VERTEX
  5
29E
330
293
100
AcDbEntity
  8
Spigoli visibili(ISO)
100
AcDbVertex
100
AcDb2dVertex
 10
173.352073168596
 20
478.2304939581429
 30
0.0
  0
VERTEX
  5
29F
330
293
100
AcDbEntity
  8
Spigoli visibili(ISO)
100
AcDbVertex
100
AcDb2dVertex
 10
173.8207173703515
 20
478.2652723133995
 30
0.0
  0
VERTEX
  5
2A0
330
293
100
AcDbEntity
  8
Spigoli visibili(ISO)
100
AcDbVertex
100
AcDb2dVertex
 10
174.2865628360116
 20
478.2860501470072
 30
0.0
  0
VERTEX
  5
2A1
330
293
100
AcDbEntity
  8
Spigoli visibili(ISO)
100
AcDbVertex
100
AcDb2dVertex
 10
174.7510165332162
 20
478.2929663027689
 30
0.0
  0
VERTEX
  5
2A2
330
293
100
AcDbEntity
  8
Spigoli visibili(ISO)
100
AcDbVertex
100
AcDb2dVertex
 10
175.2154702304208
 20
478.2860537041211
 30
0.0
  0
VERTEX
  5
2A3
330
293
100
AcDbEntity
  8
Spigoli visibili(ISO)
100
AcDbVertex
100
AcDb2dVertex
 10
175.6813156960809
 20
478.2652679041254
 30
0.0
  0
VERTEX
  5
2A4
330
293
100
AcDbEntity
  8
Spigoli visibili(ISO)
100
AcDbVertex
100
AcDb2dVertex
 10
176.1499601958596
 20
478.2304920337312
 30
0.0
  0
VERTEX
  5
2A5
330
293
100
AcDbEntity
  8
Spigoli visibili(ISO)
100
AcDbVertex
100
AcDb2dVertex
 10
176.6228366254174
 20
478.1815103460543
 30
0.0
  0
VERTEX
  5
2A6
330
293
100
AcDbEntity
  8
Spigoli visibili(ISO)
100
AcDbVertex
100
AcDb2dVertex
 10
177.1014237759912
 20
478.1180263925006
 30
0.0
  0
VERTEX
  5
2A7
330
293
100
AcDbEntity
  8
Spigoli visibili(ISO)
100
AcDbVertex
100
AcDb2dVertex
 10
177.5872564671838
 20
478.0396460837076
 30
0.0
  0
VERTEX
  5
2A8
330
293
100
AcDbEntity
  8
Spigoli visibili(ISO)
100
AcDbVertex
100
AcDb2dVertex
 10
178.0819481967294
 20
477.9458780694077
 30
0.0
  0
VERTEX
  5
2A9
330
293
100
AcDbEntity
  8
Spigoli visibili(ISO)
100
AcDbVertex
100
AcDb2dVertex
 10
178.587204253515
 20
477.8361263160329
 30
0.0
  0
VERTEX
  5
2AA
330
293
100
AcDbEntity
  8
Spigoli visibili(ISO)
100
AcDbVertex
100
AcDb2dVertex
 10
179.1048473475778
 20
477.7096652679212
 30
0.0
  0
VERTEX
  5
2AB
330
293
100
AcDbEntity
  8
Spigoli visibili(ISO)
100
AcDbVertex
100
AcDb2dVertex
 10
179.6368378756844
 20
477.5656601177101
 30
0.0
  0
VERTEX
  5
2AC
330
293
100
AcDbEntity
  8
Spigoli visibili(ISO)
100
AcDbVertex
100
AcDb2dVertex
 10
180.1853043197
 20
477.4031229342157
 30
0.0
  0
VERTEX
  5
2AD
330
293
100
AcDbEntity
  8
Spigoli visibili(ISO)
100
AcDbVertex
100
AcDb2dVertex
 10
180.7525724528634
 20
477.2208957233736
 30
0.0
  0
SEQEND
  5
296
330
293
100
AcDbEntity
  8
Spigoli visibili(ISO)
  0
POLYLINE
  5
2AE
330
6C
100
AcDbEntity
  8
Spigoli visibili(ISO)
100
AcDb2dPolyline
 66
     1
 10
0.0
 20
0.0
 30
0.0
 70
   128
  0
VERTEX
  5
2AF
330
2AE
100
AcDbEntity
  8
Spigoli visibili(ISO)
100
AcDbVertex
100
AcDb2dVertex
 10
180.7525724528634
 20
471.3686349214237
 30
0.0
  0
VERTEX
  5
2B0
330
2AE
100
AcDbEntity
  8
Spigoli visibili(ISO)
100
AcDbVertex
100
AcDb2dVertex
 10
180.1853043197
 20
471.1864102019768
 30
0.0
  0
VERTEX
  5
2B2
330
2AE
100
AcDbEntity
  8
Spigoli visibili(ISO)
100
AcDbVertex
100
AcDb2dVertex
 10
179.6368378756844
 20
471.0238711133472
 30
0.0
  0
VERTEX
  5
2B3
330
2AE
100
AcDbEntity
  8
Spigoli visibili(ISO)
100
AcDbVertex
100
AcDb2dVertex
 10
179.1048473475778
 20
470.8798602463348
 30
0.0
  0
VERTEX
  5
2B4
330
2AE
100
AcDbEntity
  8
Spigoli visibili(ISO)
100
AcDbVertex
100
AcDb2dVertex
 10
178.587204253515
 20
470.7534084307445
 30
0.0
  0
VERTEX
  5
2B5
330
2AE
100
AcDbEntity
  8
Spigoli visibili(ISO)
100
AcDbVertex
100
AcDb2dVertex
 10
178.0819481967294
 20
470.6436490854123
 30
0.0
  0
VERTEX
  5
2B6
330
2AE
100
AcDbEntity
  8
Spigoli visibili(ISO)
100
AcDbVertex
100
AcDb2dVertex
 10
177.5872564671838
 20
470.5498835977858
 30
0.0
  0
VERTEX
  5
2B7
330
2AE
100
AcDbEntity
  8
Spigoli visibili(ISO)
100
AcDbVertex
100
AcDb2dVertex
 10
177.1014237759912
 20
470.4715014794167
 30
0.0
  0
VERTEX
  5
2B8
330
2AE
100
AcDbEntity
  8
Spigoli visibili(ISO)
100
AcDbVertex
100
AcDb2dVertex
 10
176.6228366254174
 20
470.4080138642161
 30
0.0
  0
VERTEX
  5
2B9
330
2AE
100
AcDbEntity
  8
Spigoli visibili(ISO)
100
AcDbVertex
100
AcDb2dVertex
 10
176.1499601958596
 20
470.3590378064604
 30
0.0
  0
VERTEX
  5
2BA
330
2AE
100
AcDbEntity
  8
Spigoli visibili(ISO)
100
AcDbVertex
100
AcDb2dVertex
 10
175.6813156960809
 20
470.3242594512039
 30
0.0
  0
VERTEX
  5
2BB
330
2AE
100
AcDbEntity
  8
Spigoli visibili(ISO)
100
AcDbVertex
100
AcDb2dVertex
 10
175.2154702304208
 20
470.3034721009325
 30
0.0
  0
VERTEX
  5
2BC
330
2AE
100
AcDbEntity
  8
Spigoli visibili(ISO)
100
AcDbVertex
100
AcDb2dVertex
 10
174.7510165332162
 20
470.2965654618345
 30
0.0
  0
VERTEX
  5
2BD
330
2AE
100
AcDbEntity
  8
Spigoli visibili(ISO)
100
AcDbVertex
100
AcDb2dVertex
 10
174.2865628360116
 20
470.3034780604822
 30
0.0
  0
VERTEX
  5
2BE
330
2AE
100
AcDbEntity
  8
Spigoli visibili(ISO)
100
AcDbVertex
100
AcDb2dVertex
 10
173.8207173703515
 20
470.3242626234121
 30
0.0
  0
VERTEX
  5
2BF
330
2AE
100
AcDbEntity
  8
Spigoli visibili(ISO)
100
AcDbVertex
100
AcDb2dVertex
 10
173.352073168596
 20
470.3590397308722
 30
0.0
  0
VERTEX
  5
2C0
330
2AE
100
AcDbEntity
  8
Spigoli visibili(ISO)
100
AcDbVertex
100
AcDb2dVertex
 10
172.879196441015
 20
470.408021418549
 30
0.0
  0
VERTEX
  5
2C1
330
2AE
100
AcDbEntity
  8
Spigoli visibili(ISO)
100
AcDbVertex
100
AcDb2dVertex
 10
172.4006095884645
 20
470.4715053721027
 30
0.0
  0
VERTEX
  5
2C2
330
2AE
100
AcDbEntity
  8
Spigoli visibili(ISO)
100
AcDbVertex
100
AcDb2dVertex
 10
171.9147765992486
 20
470.5498856808957
 30
0.0
  0
VERTEX
  5
2C3
330
2AE
100
AcDbEntity
  8
Spigoli visibili(ISO)
100
AcDbVertex
100
AcDb2dVertex
 10
171.4200854657495
 20
470.6436536951956
 30
0.0
  0
VERTEX
  5
2C4
330
2AE
100
AcDbEntity
  8
Spigoli visibili(ISO)
100
AcDbVertex
100
AcDb2dVertex
 10
170.9148294089639
 20
470.7534054485705
 30
0.0
  0
VERTEX
  5
2C5
330
2AE
100
AcDbEntity
  8
Spigoli visibili(ISO)
100
AcDbVertex
100
AcDb2dVertex
 10
170.3971864639127
 20
470.8798664966821
 30
0.0
  0
VERTEX
  5
2C6
330
2AE
100
AcDbEntity
  8
Spigoli visibili(ISO)
100
AcDbVertex
100
AcDb2dVertex
 10
169.8651954142653
 20
471.0238716468932
 30
0.0
  0
VERTEX
  5
2C7
330
2AE
100
AcDbEntity
  8
Spigoli visibili(ISO)
100
AcDbVertex
100
AcDb2dVertex
 10
169.316728523215
 20
471.1864088303877
 30
0.0
  0
VERTEX
  5
2C8
330
2AE
100
AcDbEntity
  8
Spigoli visibili(ISO)
100
AcDbVertex
100
AcDb2dVertex
 10
168.749460613569
 20
471.3686360412298
 30
0.0
  0
SEQEND
  5
2B1
330
2AE
100
AcDbEntity
  8
Spigoli visibili(ISO)
  0
LINE
  5
2C9
330
6C
100
AcDbEntity
  8
Spigoli visibili(ISO)
100
AcDbLine
 10
180.7525727100212
 20
477.2208940636044
 30
0.0
 11
180.7525727100212
 21
471.3686370649898
 31
0.0
  0
LINE
  5
2CA
330
6C
100
AcDbEntity
  8
Spigoli visibili(ISO)
100
AcDbLine
 10
180.7525724528634
 20
477.2208957233736
 30
0.0
 11
180.7525724528634
 21
478.2929735211905
 31
0.0
  0
LINE
  5
2CB
330
6C
100
AcDbEntity
  8
Spigoli visibili(ISO)
100
AcDbLine
 10
180.7525724528634
 20
470.2965631635924
 30
0.0
 11
180.7525724528634
 21
471.3686349214237
 31
0.0
  0
LINE
  5
2CC
330
6C
100
AcDbEntity
  8
Spigoli visibili(ISO)
100
AcDbLine
 10
180.749460613569
 20
478.294765564297
 30
0.0
 11
156.749460613569
 21
478.294765564297
 31
0.0
  0
LINE
  5
2CD
330
6C
100
AcDbEntity
  8
Spigoli visibili(ISO)
100
AcDbLine
 10
156.749460613569
 20
470.2947655642971
 30
0.0
 11
156.7463485171168
 21
470.2965623340214
 31
0.0
  0
LINE
  5
2CE
330
6C
100
AcDbEntity
  8
Spigoli visibili(ISO)
100
AcDbLine
 10
180.749460613569
 20
470.2947655642971
 30
0.0
 11
180.7525727100212
 21
470.2965623340214
 31
0.0
  0
LINE
  5
2CF
330
6C
100
AcDbEntity
  8
Spigoli visibili(ISO)
100
AcDbLine
 10
180.749460613569
 20
478.294765564297
 30
0.0
 11
180.7525727100212
 21
478.2929687945726
 31
0.0
  0
LINE
  5
2D0
330
6C
100
AcDbEntity
  8
Spigoli visibili(ISO)
100
AcDbLine
 10
156.749460613569
 20
478.294765564297
 30
0.0
 11
156.7463485171167
 21
478.2929687945726
 31
0.0
  0
LINE
  5
2D1
330
6C
100
AcDbEntity
  8
Spigoli visibili(ISO)
100
AcDbLine
 10
680.1340348768849
 20
462.2947655642971
 30
0.0
 11
680.1340348768849
 21
365.2947655642971
 31
0.0
  0
LINE
  5
2D2
330
6C
100
AcDbEntity
  8
Spigoli visibili(ISO)
100
AcDbLine
 10
513.1340348768849
 20
470.2947655642971
 30
0.0
 11
672.1340348768849
 21
470.2947655642971
 31
0.0
  0
LINE
  5
2D3
330
6C
100
AcDbEntity
  8
Spigoli visibili(ISO)
100
AcDbLine
 10
505.1340348768849
 20
405.2947655642972
 30
0.0
 11
505.1340348768849
 21
462.2947655642971
 31
0.0
  0
LINE
  5
2D4
330
6C
100
AcDbEntity
  8
Spigoli visibili(ISO)
100
AcDbLine
 10
676.1340348768849
 20
365.2947655642971
 30
0.0
 11
676.1340348768849
 21
462.2947655642971
 31
0.0
  0
LINE
  5
2D5
330
6C
100
AcDbEntity
  8
Spigoli visibili(ISO)
100
AcDbLine
 10
509.1340348768849
 20
462.2947655642971
 30
0.0
 11
509.1340348768849
 21
405.2947655642972
 31
0.0
  0
LINE
  5
2D6
330
6C
100
AcDbEntity
  8
Spigoli visibili(ISO)
100
AcDbLine
 10
672.1340348768849
 20
466.2947655642972
 30
0.0
 11
513.1340348768849
 21
466.2947655642972
 31
0.0
  0
LINE
  5
2D7
330
6C
100
AcDbEntity
  8
Spigoli visibili(ISO)
100
AcDbLine
 10
680.1340348768849
 20
365.2947655642971
 30
0.0
 11
680.1340348768863
 21
360.2947655642972
 31
0.0
  0
LINE
  5
2D8
330
6C
100
AcDbEntity
  8
Spigoli visibili(ISO)
100
AcDbLine
 10
505.1340348768863
 20
400.2947655642972
 30
0.0
 11
505.1340348768849
 21
405.2947655642972
 31
0.0
  0
LINE
  5
2D9
330
6C
100
AcDbEntity
  8
Spigoli visibili(ISO)
100
AcDbLine
 10
505.1340348768863
 20
400.2947655642972
 30
0.0
 11
509.1340348768864
 21
400.2947655642972
 31
0.0
  0
LINE
  5
2DA
330
6C
100
AcDbEntity
  8
Spigoli visibili(ISO)
100
AcDbLine
 10
509.1340348768849
 20
405.2947655642971
 30
0.0
 11
509.1340348768864
 21
400.2947655642972
 31
0.0
  0
LINE
  5
2DB
330
6C
100
AcDbEntity
  8
Spigoli visibili(ISO)
100
AcDbLine
 10
676.1340348768864
 20
360.2947655642972
 30
0.0
 11
676.134034876885
 21
365.2947655642972
 31
0.0
  0
LINE
  5
2DC
330
6C
100
AcDbEntity
  8
Spigoli visibili(ISO)
100
AcDbLine
 10
676.1340348768863
 20
360.2947655642971
 30
0.0
 11
680.1340348768863
 21
360.2947655642971
 31
0.0
  0
ARC
  5
2DD
330
6C
100
AcDbEntity
  8
Spigoli visibili(ISO)
100
AcDbCircle
 10
672.1340348768848
 20
462.2947655642971
 30
0.0
 40
8.000000000000033
100
AcDbArc
 50
0.0
 51
90.0
  0
ARC
  5
2DE
330
6C
100
AcDbEntity
  8
Spigoli visibili(ISO)
100
AcDbCircle
 10
672.1340348768848
 20
462.2947655642971
 30
0.0
 40
4.00000000000003
100
AcDbArc
 50
0.0
 51
90.0
  0
ARC
  5
2DF
330
6C
100
AcDbEntity
  8
Spigoli visibili(ISO)
100
AcDbCircle
 10
513.1340348768849
 20
462.2947655642971
 30
0.0
 40
8.000000000000039
100
AcDbArc
 50
90.00000000000047
 51
180.0
  0
ARC
  5
2E0
330
6C
100
AcDbEntity
  8
Spigoli visibili(ISO)
100
AcDbCircle
 10
513.1340348768849
 20
462.2947655642972
 30
0.0
 40
3.999999999999986
100
AcDbArc
 50
90.0
 51
180.0
  0
LINE
  5
2E1
330
6C
100
AcDbEntity
  8
Spigoli visibili(ISO)
100
AcDbLine
 10
609.4134100349584
 20
484.7947655642971
 30
0.0
 11
623.4134100349583
 21
484.7947655642971
 31
0.0
  0
LINE
  5
2E2
330
6C
100
AcDbEntity
  8
Spigoli visibili(ISO)
100
AcDbLine
 10
624.4134100349583
 20
483.7947655642971
 30
0.0
 11
608.4134100349583
 21
483.7947655642971
 31
0.0
  0
LINE
  5
2E3
330
6C
100
AcDbEntity
  8
Spigoli visibili(ISO)
100
AcDbLine
 10
623.4134100349583
 20
484.7947655642971
 30
0.0
 11
624.4134100349583
 21
483.7947655642971
 31
0.0
  0
LINE
  5
2E4
330
6C
100
AcDbEntity
  8
Spigoli visibili(ISO)
100
AcDbLine
 10
609.4134100349584
 20
484.7947655642971
 30
0.0
 11
608.4134100349583
 21
483.7947655642971
 31
0.0
  0
LINE
  5
2E5
330
6C
100
AcDbEntity
  8
Spigoli visibili(ISO)
100
AcDbLine
 10
624.4134100349583
 20
483.7947655642971
 30
0.0
 11
624.4134100349583
 21
478.2947655642971
 31
0.0
  0
LINE
  5
2E6
330
6C
100
AcDbEntity
  8
Spigoli visibili(ISO)
100
AcDbLine
 10
608.4134100349583
 20
483.7947655642971
 30
0.0
 11
608.4134100349583
 21
478.2947655642971
 31
0.0
  0
LINE
  5
2E7
330
6C
100
AcDbEntity
  8
Spigoli visibili(ISO)
100
AcDbLine
 10
528.1340348768951
 20
484.7947655642972
 30
0.0
 11
542.1340348768951
 21
484.7947655642972
 31
0.0
  0
LINE
  5
2E8
330
6C
100
AcDbEntity
  8
Spigoli visibili(ISO)
100
AcDbLine
 10
543.1340348768951
 20
483.7947655642972
 30
0.0
 11
527.1340348768951
 21
483.7947655642972
 31
0.0
  0
LINE
  5
2E9
330
6C
100
AcDbEntity
  8
Spigoli visibili(ISO)
100
AcDbLine
 10
542.1340348768951
 20
484.7947655642972
 30
0.0
 11
543.1340348768951
 21
483.7947655642972
 31
0.0
  0
LINE
  5
2EA
330
6C
100
AcDbEntity
  8
Spigoli visibili(ISO)
100
AcDbLine
 10
528.1340348768951
 20
484.7947655642972
 30
0.0
 11
527.1340348768951
 21
483.7947655642972
 31
0.0
  0
LINE
  5
2EB
330
6C
100
AcDbEntity
  8
Spigoli visibili(ISO)
100
AcDbLine
 10
543.1340348768951
 20
483.7947655642972
 30
0.0
 11
543.1340348768951
 21
478.2947655642971
 31
0.0
  0
LINE
  5
2EC
330
6C
100
AcDbEntity
  8
Spigoli visibili(ISO)
100
AcDbLine
 10
527.1340348768951
 20
483.7947655642972
 30
0.0
 11
527.1340348768951
 21
478.2947655642971
 31
0.0
  0
LINE
  5
2ED
330
6C
100
AcDbEntity
  8
Spigoli visibili(ISO)
100
AcDbLine
 10
640.4134100349526
 20
400.7947655642971
 30
0.0
 11
635.9134100349513
 21
400.7947655642971
 31
0.0
  0
LINE
  5
2EE
330
6C
100
AcDbEntity
  8
Spigoli visibili(ISO)
100
AcDbLine
 10
604.4134100349513
 20
400.7947655642971
 30
0.0
 11
635.9134100349513
 21
400.7947655642971
 31
0.0
  0
LINE
  5
2EF
330
6C
100
AcDbEntity
  8
Spigoli visibili(ISO)
100
AcDbLine
 10
604.4134100349513
 20
453.7947655642971
 30
0.0
 11
604.4134100349513
 21
400.7947655642971
 31
0.0
  0
LINE
  5
2F0
330
6C
100
AcDbEntity
  8
Spigoli visibili(ISO)
100
AcDbLine
 10
640.4134100349526
 20
453.7947655642971
 30
0.0
 11
640.4134100349526
 21
400.7947655642971
 31
0.0
  0
LINE
  5
2F1
330
6C
100
AcDbEntity
  8
Spigoli visibili(ISO)
100
AcDbLine
 10
626.6363319494719
 20
424.9244676604457
 30
0.0
 11
626.6363319494719
 21
426.9799040687304
 31
0.0
  0
LINE
  5
2F2
330
6C
100
AcDbEntity
  8
Spigoli visibili(ISO)
100
AcDbLine
 10
626.6363319494719
 20
426.9799040687304
 30
0.0
 11
617.1904881204307
 21
426.9799040687304
 31
0.0
  0
LINE
  5
2F3
330
6C
100
AcDbEntity
  8
Spigoli visibili(ISO)
100
AcDbLine
 10
617.1904881204307
 20
426.9799040687304
 30
0.0
 11
617.1904881204307
 21
424.9244676604457
 31
0.0
  0
ARC
  5
2F4
330
6C
100
AcDbEntity
  8
Spigoli visibili(ISO)
100
AcDbCircle
 10
621.9134100349513
 20
429.8688294642971
 30
0.0
 40
6.297229219360832
100
AcDbArc
 50
236.6329870307683
 51
303.3670129692314
  0
LINE
  5
2F5
330
6C
100
AcDbEntity
  8
Spigoli visibili(ISO)
100
AcDbLine
 10
618.4499339643028
 20
424.6096061994778
 30
0.0
 11
616.8756266594627
 21
424.6096061994777
 31
0.0
  0
LINE
  5
2F6
330
6C
100
AcDbEntity
  8
Spigoli visibili(ISO)
100
AcDbLine
 10
616.8756266594627
 20
424.6096061994777
 30
0.0
 11
616.8756266594627
 21
427.2947655296983
 31
0.0
  0
LINE
  5
2F7
330
6C
100
AcDbEntity
  8
Spigoli visibili(ISO)
100
AcDbLine
 10
625.2812001633996
 20
424.9244676604458
 30
0.0
 11
626.6363319494719
 21
424.9244676604457
 31
0.0
  0
ARC
  5
2F8
330
6C
100
AcDbEntity
  8
Spigoli visibili(ISO)
100
AcDbCircle
 10
621.9134100349513
 20
429.8688294642971
 30
0.0
 40
5.982367758392786
100
AcDbArc
 50
235.7397558735602
 51
304.2602441264419
  0
LINE
  5
2F9
330
6C
100
AcDbEntity
  8
Spigoli visibili(ISO)
100
AcDbLine
 10
617.1904881204307
 20
424.9244676604457
 30
0.0
 11
618.5456199065031
 21
424.9244676604457
 31
0.0
  0
LINE
  5
2FA
330
6C
100
AcDbEntity
  8
Spigoli visibili(ISO)
100
AcDbLine
 10
616.8756266594627
 20
427.2947655296983
 30
0.0
 11
626.9511934104399
 21
427.2947655296984
 31
0.0
  0
LINE
  5
2FB
330
6C
100
AcDbEntity
  8
Spigoli visibili(ISO)
100
AcDbLine
 10
626.9511934104399
 20
427.2947655296984
 30
0.0
 11
626.9511934104399
 21
424.6096061994777
 31
0.0
  0
LINE
  5
2FC
330
6C
100
AcDbEntity
  8
Spigoli visibili(ISO)
100
AcDbLine
 10
626.9511934104399
 20
424.6096061994777
 30
0.0
 11
625.3768861055997
 21
424.6096061994778
 31
0.0
  0
LINE
  5
2FD
330
6C
100
AcDbEntity
  8
Spigoli visibili(ISO)
100
AcDbLine
 10
626.6363319494719
 20
421.609585408289
 30
0.0
 11
626.6363319494719
 21
423.6650218165737
 31
0.0
  0
LINE
  5
2FE
330
6C
100
AcDbEntity
  8
Spigoli visibili(ISO)
100
AcDbLine
 10
626.6363319494719
 20
423.6650218165737
 30
0.0
 11
625.6492680247573
 21
423.6650218165737
 31
0.0
  0
ARC
  5
2FF
330
6C
100
AcDbEntity
  8
Spigoli visibili(ISO)
100
AcDbCircle
 10
621.9134100349513
 20
429.8688294642971
 30
0.0
 40
7.241813602264953
100
AcDbArc
 50
238.944157234803
 51
301.055842765198
  0
LINE
  5
300
330
6C
100
AcDbEntity
  8
Spigoli visibili(ISO)
100
AcDbLine
 10
616.8756266594627
 20
421.2947239473209
 30
0.0
 11
616.8756266594627
 21
423.9798832775416
 31
0.0
  0
LINE
  5
301
330
6C
100
AcDbEntity
  8
Spigoli visibili(ISO)
100
AcDbLine
 10
616.8756266594627
 20
423.9798832775416
 30
0.0
 11
618.2660851553557
 21
423.9798832775417
 31
0.0
  0
ARC
  5
302
330
6C
100
AcDbEntity
  8
Spigoli visibili(ISO)
100
AcDbCircle
 10
621.9134100349513
 20
429.8688294642971
 30
0.0
 40
6.92695214129692
100
AcDbArc
 50
238.2279537716524
 51
301.7720462283476
  0
LINE
  5
303
330
6C
100
AcDbEntity
  8
Spigoli visibili(ISO)
100
AcDbLine
 10
617.1904881204307
 20
421.609585408289
 30
0.0
 11
626.6363319494719
 21
421.609585408289
 31
0.0
  0
LINE
  5
304
330
6C
100
AcDbEntity
  8
Spigoli visibili(ISO)
100
AcDbLine
 10
617.1904881204307
 20
423.6650218165737
 30
0.0
 11
617.1904881204307
 21
421.609585408289
 31
0.0
  0
LINE
  5
305
330
6C
100
AcDbEntity
  8
Spigoli visibili(ISO)
100
AcDbLine
 10
618.1775520451452
 20
423.6650218165737
 30
0.0
 11
617.1904881204307
 21
423.6650218165737
 31
0.0
  0
LINE
  5
306
330
6C
100
AcDbEntity
  8
Spigoli visibili(ISO)
100
AcDbLine
 10
625.5607349145468
 20
423.9798832775417
 30
0.0
 11
626.9511934104399
 21
423.9798832775416
 31
0.0
  0
LINE
  5
307
330
6C
100
AcDbEntity
  8
Spigoli visibili(ISO)
100
AcDbLine
 10
626.9511934104399
 20
423.9798832775416
 30
0.0
 11
626.9511934104399
 21
421.2947239473209
 31
0.0
  0
LINE
  5
308
330
6C
100
AcDbEntity
  8
Spigoli visibili(ISO)
100
AcDbLine
 10
626.9511934104399
 20
421.2947239473209
 30
0.0
 11
616.8756266594627
 21
421.2947239473209
 31
0.0
  0
ARC
  5
309
330
6C
100
AcDbEntity
  8
Spigoli visibili(ISO)
100
AcDbCircle
 10
635.9134100349526
 20
453.7947655642971
 30
0.0
 40
4.500000000000001
100
AcDbArc
 50
0.0
 51
90.0
  0
LINE
  5
30A
330
6C
100
AcDbEntity
  8
Spigoli visibili(ISO)
100
AcDbLine
 10
604.4134100349513
 20
453.7947655642971
 30
0.0
 11
604.4134100349526
 21
458.2947655642971
 31
0.0
  0
LINE
  5
30B
330
6C
100
AcDbEntity
  8
Spigoli visibili(ISO)
100
AcDbLine
 10
635.9134100349526
 20
458.2947655642971
 30
0.0
 11
604.4134100349526
 21
458.2947655642971
 31
0.0
  0
LINE
  5
30C
330
6C
100
AcDbEntity
  8
Spigoli visibili(ISO)
100
AcDbLine
 10
515.6340348768879
 20
400.7947655642972
 30
0.0
 11
547.134034876888
 21
400.7947655642972
 31
0.0
  0
LINE
  5
30D
330
6C
100
AcDbEntity
  8
Spigoli visibili(ISO)
100
AcDbLine
 10
515.6340348768879
 20
400.7947655642972
 30
0.0
 11
511.1340348768893
 21
400.7947655642972
 31
0.0
  0
LINE
  5
30E
330
6C
100
AcDbEntity
  8
Spigoli visibili(ISO)
100
AcDbLine
 10
547.134034876888
 20
400.7947655642972
 30
0.0
 11
547.134034876888
 21
453.7947655642972
 31
0.0
  0
LINE
  5
30F
330
6C
100
AcDbEntity
  8
Spigoli visibili(ISO)
100
AcDbLine
 10
511.1340348768893
 20
453.7947655642972
 30
0.0
 11
511.1340348768893
 21
400.7947655642972
 31
0.0
  0
LINE
  5
310
330
6C
100
AcDbEntity
  8
Spigoli visibili(ISO)
100
AcDbLine
 10
524.9111129623675
 20
426.9799040687305
 30
0.0
 11
524.9111129623675
 21
424.9244676604458
 31
0.0
  0
LINE
  5
311
330
6C
100
AcDbEntity
  8
Spigoli visibili(ISO)
100
AcDbLine
 10
534.3569567914085
 20
426.9799040687305
 30
0.0
 11
524.9111129623675
 21
426.9799040687305
 31
0.0
  0
LINE
  5
312
330
6C
100
AcDbEntity
  8
Spigoli visibili(ISO)
100
AcDbLine
 10
534.3569567914085
 20
424.9244676604458
 30
0.0
 11
534.3569567914085
 21
426.9799040687305
 31
0.0
  0
ARC
  5
313
330
6C
100
AcDbEntity
  8
Spigoli visibili(ISO)
100
AcDbCircle
 10
529.634034876888
 20
429.8688294642972
 30
0.0
 40
6.297229219360835
100
AcDbArc
 50
236.6329870307686
 51
303.3670129692314
  0
LINE
  5
314
330
6C
100
AcDbEntity
  8
Spigoli visibili(ISO)
100
AcDbLine
 10
534.6718182523765
 20
424.6096061994778
 30
0.0
 11
533.0975109475365
 21
424.6096061994779
 31
0.0
  0
LINE
  5
315
330
6C
100
AcDbEntity
  8
Spigoli visibili(ISO)
100
AcDbLine
 10
534.6718182523765
 20
427.2947655296984
 30
0.0
 11
534.6718182523765
 21
424.6096061994778
 31
0.0
  0
LINE
  5
316
330
6C
100
AcDbEntity
  8
Spigoli visibili(ISO)
100
AcDbLine
 10
524.9111129623675
 20
424.9244676604458
 30
0.0
 11
526.2662447484396
 21
424.924467660446
 31
0.0
  0
ARC
  5
317
330
6C
100
AcDbEntity
  8
Spigoli visibili(ISO)
100
AcDbCircle
 10
529.634034876888
 20
429.8688294642972
 30
0.0
 40
5.982367758392789
100
AcDbArc
 50
235.7397558735581
 51
304.2602441264398
  0
LINE
  5
318
330
6C
100
AcDbEntity
  8
Spigoli visibili(ISO)
100
AcDbLine
 10
533.0018250053362
 20
424.9244676604458
 30
0.0
 11
534.3569567914085
 21
424.9244676604458
 31
0.0
  0
LINE
  5
319
330
6C
100
AcDbEntity
  8
Spigoli visibili(ISO)
100
AcDbLine
 10
524.5962515013993
 20
427.2947655296985
 30
0.0
 11
534.6718182523765
 21
427.2947655296984
 31
0.0
  0
LINE
  5
31A
330
6C
100
AcDbEntity
  8
Spigoli visibili(ISO)
100
AcDbLine
 10
524.5962515013993
 20
424.6096061994778
 30
0.0
 11
524.5962515013993
 21
427.2947655296985
 31
0.0
  0
LINE
  5
31B
330
6C
100
AcDbEntity
  8
Spigoli visibili(ISO)
100
AcDbLine
 10
526.1705588062396
 20
424.6096061994779
 30
0.0
 11
524.5962515013993
 21
424.6096061994778
 31
0.0
  0
LINE
  5
31C
330
6C
100
AcDbEntity
  8
Spigoli visibili(ISO)
100
AcDbLine
 10
524.9111129623675
 20
423.6650218165738
 30
0.0
 11
524.9111129623675
 21
421.609585408289
 31
0.0
  0
LINE
  5
31D
330
6C
100
AcDbEntity
  8
Spigoli visibili(ISO)
100
AcDbLine
 10
525.8981768870819
 20
423.6650218165738
 30
0.0
 11
524.9111129623675
 21
423.6650218165738
 31
0.0
  0
ARC
  5
31E
330
6C
100
AcDbEntity
  8
Spigoli visibili(ISO)
100
AcDbCircle
 10
529.634034876888
 20
429.8688294642972
 30
0.0
 40
7.241813602264959
100
AcDbArc
 50
238.944157234802
 51
301.0558427651975
  0
LINE
  5
31F
330
6C
100
AcDbEntity
  8
Spigoli visibili(ISO)
100
AcDbLine
 10
534.6718182523765
 20
423.9798832775417
 30
0.0
 11
534.6718182523765
 21
421.2947239473209
 31
0.0
  0
LINE
  5
320
330
6C
100
AcDbEntity
  8
Spigoli visibili(ISO)
100
AcDbLine
 10
533.2813597564835
 20
423.9798832775418
 30
0.0
 11
534.6718182523765
 21
423.9798832775417
 31
0.0
  0
ARC
  5
321
330
6C
100
AcDbEntity
  8
Spigoli visibili(ISO)
100
AcDbCircle
 10
529.634034876888
 20
429.8688294642972
 30
0.0
 40
6.926952141296923
100
AcDbArc
 50
238.2279537716524
 51
301.7720462283476
  0
LINE
  5
322
330
6C
100
AcDbEntity
  8
Spigoli visibili(ISO)
100
AcDbLine
 10
524.9111129623675
 20
421.609585408289
 30
0.0
 11
534.3569567914085
 21
421.609585408289
 31
0.0
  0
LINE
  5
323
330
6C
100
AcDbEntity
  8
Spigoli visibili(ISO)
100
AcDbLine
 10
534.3569567914085
 20
421.609585408289
 30
0.0
 11
534.3569567914086
 21
423.6650218165737
 31
0.0
  0
LINE
  5
324
330
6C
100
AcDbEntity
  8
Spigoli visibili(ISO)
100
AcDbLine
 10
534.3569567914086
 20
423.6650218165737
 30
0.0
 11
533.3698928666941
 21
423.6650218165737
 31
0.0
  0
LINE
  5
325
330
6C
100
AcDbEntity
  8
Spigoli visibili(ISO)
100
AcDbLine
 10
524.5962515013993
 20
423.9798832775417
 30
0.0
 11
525.9867099972924
 21
423.9798832775418
 31
0.0
  0
LINE
  5
326
330
6C
100
AcDbEntity
  8
Spigoli visibili(ISO)
100
AcDbLine
 10
524.5962515013993
 20
421.2947239473209
 30
0.0
 11
524.5962515013993
 21
423.9798832775417
 31
0.0
  0
LINE
  5
327
330
6C
100
AcDbEntity
  8
Spigoli visibili(ISO)
100
AcDbLine
 10
534.6718182523765
 20
421.2947239473209
 30
0.0
 11
524.5962515013993
 21
421.2947239473209
 31
0.0
  0
LINE
  5
328
330
6C
100
AcDbEntity
  8
Spigoli visibili(ISO)
100
AcDbLine
 10
547.1340348768893
 20
458.2947655642973
 30
0.0
 11
547.134034876888
 21
453.7947655642972
 31
0.0
  0
LINE
  5
329
330
6C
100
AcDbEntity
  8
Spigoli visibili(ISO)
100
AcDbLine
 10
547.1340348768895
 20
458.2947655642972
 30
0.0
 11
515.6340348768893
 21
458.2947655642972
 31
0.0
  0
ARC
  5
32A
330
6C
100
AcDbEntity
  8
Spigoli visibili(ISO)
100
AcDbCircle
 10
515.6340348768893
 20
453.7947655642972
 30
0.0
 40
4.50000000000001
100
AcDbArc
 50
90.0
 51
180.0
  0
LINE
  5
32B
330
6C
100
AcDbEntity
  8
Spigoli visibili(ISO)
100
AcDbLine
 10
601.3654329811994
 20
411.7947292433313
 30
0.0
 11
604.4134100349557
 21
411.7947292433313
 31
0.0
  0
LINE
  5
32C
330
6C
100
AcDbEntity
  8
Spigoli visibili(ISO)
100
AcDbLine
 10
604.4134100349562
 20
410.7947655642972
 30
0.0
 11
602.3569100349583
 21
410.7947655642972
 31
0.0
  0
LINE
  5
32D
330
6C
100
AcDbEntity
  8
Spigoli visibili(ISO)
100
AcDbLine
 10
604.4134100349558
 20
452.794801885263
 30
0.0
 11
601.7148870887173
 21
452.794801885263
 31
0.0
  0
LINE
  5
32E
330
6C
100
AcDbEntity
  8
Spigoli visibili(ISO)
100
AcDbLine
 10
602.7234100349584
 20
453.7947655642971
 30
0.0
 11
604.4134100349565
 21
453.7947655642971
 31
0.0
  0
LINE
  5
32F
330
6C
100
AcDbEntity
  8
Spigoli visibili(ISO)
100
AcDbLine
 10
602.3569100349583
 20
410.7947655642972
 30
0.0
 11
601.3654329811994
 21
411.7947292433313
 31
0.0
  0
LINE
  5
330
330
6C
100
AcDbEntity
  8
Spigoli visibili(ISO)
100
AcDbLine
 10
602.7234100349584
 20
453.7947655642971
 30
0.0
 11
601.7148870887173
 21
452.794801885263
 31
0.0
  0
LINE
  5
331
330
6C
100
AcDbEntity
  8
Spigoli visibili(ISO)
100
AcDbLine
 10
601.7148870887173
 20
452.794801885263
 30
0.0
 11
601.3654329811994
 21
411.7947292433313
 31
0.0
  0
LINE
  5
332
330
6C
100
AcDbEntity
  8
Spigoli visibili(ISO)
100
AcDbLine
 10
547.1340348768924
 20
411.7947292433313
 30
0.0
 11
550.1820119306541
 21
411.7947292433313
 31
0.0
  0
LINE
  5
333
330
6C
100
AcDbEntity
  8
Spigoli visibili(ISO)
100
AcDbLine
 10
549.1905348768951
 20
410.7947655642972
 30
0.0
 11
547.1340348768928
 21
410.7947655642972
 31
0.0
  0
LINE
  5
334
330
6C
100
AcDbEntity
  8
Spigoli visibili(ISO)
100
AcDbLine
 10
549.8325578231361
 20
452.7948018852631
 30
0.0
 11
547.1340348768926
 21
452.7948018852631
 31
0.0
  0
LINE
  5
335
330
6C
100
AcDbEntity
  8
Spigoli visibili(ISO)
100
AcDbLine
 10
547.1340348768932
 20
453.7947655642972
 30
0.0
 11
548.8240348768952
 21
453.7947655642972
 31
0.0
  0
LINE
  5
336
330
6C
100
AcDbEntity
  8
Spigoli visibili(ISO)
100
AcDbLine
 10
549.1905348768951
 20
410.7947655642972
 30
0.0
 11
550.1820119306541
 21
411.7947292433313
 31
0.0
  0
LINE
  5
337
330
6C
100
AcDbEntity
  8
Spigoli visibili(ISO)
100
AcDbLine
 10
548.8240348768952
 20
453.7947655642972
 30
0.0
 11
549.8325578231361
 21
452.7948018852631
 31
0.0
  0
LINE
  5
338
330
6C
100
AcDbEntity
  8
Spigoli visibili(ISO)
100
AcDbLine
 10
549.8325578231363
 20
452.7948018852631
 30
0.0
 11
550.1820119306541
 21
411.7947292433313
 31
0.0
  0
LINE
  5
339
330
6C
100
AcDbEntity
  8
Spigoli visibili(ISO)
100
AcDbLine
 10
602.5534100349585
 20
465.2208940636042
 30
0.0
 11
602.5534100349585
 21
459.3686370649897
 31
0.0
  0
POLYLINE
  5
33A
330
6C
100
AcDbEntity
  8
Spigoli visibili(ISO)
100
AcDb2dPolyline
 66
     1
 10
0.0
 20
0.0
 30
0.0
 70
   128
  0
VERTEX
  5
33B
330
33A
100
AcDbEntity
  8
Spigoli visibili(ISO)
100
AcDbVertex
100
AcDb2dVertex
 10
602.5534014909591
 20
465.2208911268894
 30
0.0
  0
VERTEX
  5
33C
330
33A
100
AcDbEntity
  8
Spigoli visibili(ISO)
100
AcDbVertex
100
AcDb2dVertex
 10
602.8809275831699
 20
465.4031171006658
 30
0.0
  0
VERTEX
  5
33E
330
33A
100
AcDbEntity
  8
Spigoli visibili(ISO)
100
AcDbVertex
100
AcDb2dVertex
 10
603.1975796143824
 20
465.5656650378897
 30
0.0
  0
VERTEX
  5
33F
330
33A
100
AcDbEntity
  8
Spigoli visibili(ISO)
100
AcDbVertex
100
AcDb2dVertex
 10
603.5047310230659
 20
465.7096689510349
 30
0.0
  0
VERTEX
  5
340
330
33A
100
AcDbEntity
  8
Spigoli visibili(ISO)
100
AcDbVertex
100
AcDb2dVertex
 10
603.803593084545
 20
465.836120482483
 30
0.0
  0
VERTEX
  5
341
330
33A
100
AcDbEntity
  8
Spigoli visibili(ISO)
100
AcDbVertex
100
AcDb2dVertex
 10
604.0952916628413
 20
465.9458734729236
 30
0.0
  0
VERTEX
  5
342
330
33A
100
AcDbEntity
  8
Spigoli visibili(ISO)
100
AcDbVertex
100
AcDb2dVertex
 10
604.3809052773282
 20
466.0396414872235
 30
0.0
  0
VERTEX
  5
343
330
33A
100
AcDbEntity
  8
Spigoli visibili(ISO)
100
AcDbVertex
100
AcDb2dVertex
 10
604.6614098583475
 20
466.1180300756143
 30
0.0
  0
VERTEX
  5
344
330
33A
100
AcDbEntity
  8
Spigoli visibili(ISO)
100
AcDbVertex
100
AcDb2dVertex
 10
604.9377155767989
 20
466.1815152662339
 30
0.0
  0
VERTEX
  5
345
330
33A
100
AcDbEntity
  8
Spigoli visibili(ISO)
100
AcDbVertex
100
AcDb2dVertex
 10
605.2107276553182
 20
466.2304969539108
 30
0.0
  0
VERTEX
  5
346
330
33A
100
AcDbEntity
  8
Spigoli visibili(ISO)
100
AcDbVertex
100
AcDb2dVertex
 10
605.4813064460252
 20
466.2652728243049
 30
0.0
  0
VERTEX
  5
347
330
33A
100
AcDbEntity
  8
Spigoli visibili(ISO)
100
AcDbVertex
100
AcDb2dVertex
 10
605.7502496342611
 20
466.2860586243007
 30
0.0
  0
VERTEX
  5
348
330
33A
100
AcDbEntity
  8
Spigoli visibili(ISO)
100
AcDbVertex
100
AcDb2dVertex
 10
606.0184058200206
 20
466.2929712229485
 30
0.0
  0
VERTEX
  5
349
330
33A
100
AcDbEntity
  8
Spigoli visibili(ISO)
100
AcDbVertex
100
AcDb2dVertex
 10
606.2865615550525
 20
466.2860550671868
 30
0.0
  0
VERTEX
  5
34A
330
33A
100
AcDbEntity
  8
Spigoli visibili(ISO)
100
AcDbVertex
100
AcDb2dVertex
 10
606.5555168576374
 20
466.2652677169154
 30
0.0
  0
VERTEX
  5
34B
330
33A
100
AcDbEntity
  8
Spigoli visibili(ISO)
100
AcDbVertex
100
AcDb2dVertex
 10
606.8260864496527
 20
466.2304988783225
 30
0.0
  0
VERTEX
  5
34C
330
33A
100
AcDbEntity
  8
Spigoli visibili(ISO)
100
AcDbVertex
100
AcDb2dVertex
 10
607.0991150787026
 20
466.1815120668375
 30
0.0
  0
VERTEX
  5
34D
330
33A
100
AcDbEntity
  8
Spigoli visibili(ISO)
100
AcDbVertex
100
AcDb2dVertex
 10
607.3754253663994
 20
466.1180244516367
 30
0.0
  0
VERTEX
  5
34E
330
33A
100
AcDbEntity
  8
Spigoli visibili(ISO)
100
AcDbVertex
100
AcDb2dVertex
 10
607.6559092638031
 20
466.0396435703336
 30
0.0
  0
VERTEX
  5
34F
330
33A
100
AcDbEntity
  8
Spigoli visibili(ISO)
100
AcDbVertex
100
AcDb2dVertex
 10
607.9415286699536
 20
465.9458768456412
 30
0.0
  0
VERTEX
  5
350
330
33A
100
AcDbEntity
  8
Spigoli visibili(ISO)
100
AcDbVertex
100
AcDb2dVertex
 10
608.2332386800291
 20
465.8361270169726
 30
0.0
  0
VERTEX
  5
351
330
33A
100
AcDbEntity
  8
Spigoli visibili(ISO)
100
AcDbVertex
100
AcDb2dVertex
 10
608.5321005482435
 20
465.7096656847186
 30
0.0
  0
VERTEX
  5
352
330
33A
100
AcDbEntity
  8
Spigoli visibili(ISO)
100
AcDbVertex
100
AcDb2dVertex
 10
608.8392454767917
 20
465.56566433437
 30
0.0
  0
VERTEX
  5
353
330
33A
100
AcDbEntity
  8
Spigoli visibili(ISO)
100
AcDbVertex
100
AcDb2dVertex
 10
609.1558893194452
 20
465.403126482806
 30
0.0
  0
VERTEX
  5
354
330
33A
100
AcDbEntity
  8
Spigoli visibili(ISO)
100
AcDbVertex
100
AcDb2dVertex
 10
609.4834093333953
 20
465.2208922466956
 30
0.0
  0
SEQEND
  5
33D
330
33A
100
AcDbEntity
  8
Spigoli visibili(ISO)
  0
POLYLINE
  5
355
330
6C
100
AcDbEntity
  8
Spigoli visibili(ISO)
100
AcDb2dPolyline
 66
     1
 10
0.0
 20
0.0
 30
0.0
 70
   128
  0
VERTEX
  5
356
330
355
100
AcDbEntity
  8
Spigoli visibili(ISO)
100
AcDbVertex
100
AcDb2dVertex
 10
609.4834071197067
 20
459.3686409614093
 30
0.0
  0
VERTEX
  5
357
330
355
100
AcDbEntity
  8
Spigoli visibili(ISO)
100
AcDbVertex
100
AcDb2dVertex
 10
609.1559000608233
 20
459.1864137505672
 30
0.0
  0
VERTEX
  5
359
330
355
100
AcDbEntity
  8
Spigoli visibili(ISO)
100
AcDbVertex
100
AcDb2dVertex
 10
608.8392480296108
 20
459.0238658133433
 30
0.0
  0
VERTEX
  5
35A
330
355
100
AcDbEntity
  8
Spigoli visibili(ISO)
100
AcDbVertex
100
AcDb2dVertex
 10
608.5320966209273
 20
458.8798619001981
 30
0.0
  0
VERTEX
  5
35B
330
355
100
AcDbEntity
  8
Spigoli visibili(ISO)
100
AcDbVertex
100
AcDb2dVertex
 10
608.2332345594482
 20
458.7534103687501
 30
0.0
  0
VERTEX
  5
35C
330
355
100
AcDbEntity
  8
Spigoli visibili(ISO)
100
AcDbVertex
100
AcDb2dVertex
 10
607.9415169478246
 20
458.6436586153752
 30
0.0
  0
VERTEX
  5
35D
330
355
100
AcDbEntity
  8
Spigoli visibili(ISO)
100
AcDbVertex
100
AcDb2dVertex
 10
607.6559217481322
 20
458.5498798473458
 30
0.0
  0
VERTEX
  5
35E
330
355
100
AcDbEntity
  8
Spigoli visibili(ISO)
100
AcDbVertex
100
AcDb2dVertex
 10
607.3754177856455
 20
458.4715007756186
 30
0.0
  0
VERTEX
  5
35F
330
355
100
AcDbEntity
  8
Spigoli visibili(ISO)
100
AcDbVertex
100
AcDb2dVertex
 10
607.0991120671943
 20
458.4080155849991
 30
0.0
  0
VERTEX
  5
360
330
355
100
AcDbEntity
  8
Spigoli visibili(ISO)
100
AcDbVertex
100
AcDb2dVertex
 10
606.8260809553476
 20
458.3590351343881
 30
0.0
  0
VERTEX
  5
361
330
355
100
AcDbEntity
  8
Spigoli visibili(ISO)
100
AcDbVertex
100
AcDb2dVertex
 10
606.5555211979678
 20
458.324258026928
 30
0.0
  0
VERTEX
  5
362
330
355
100
AcDbEntity
  8
Spigoli visibili(ISO)
100
AcDbVertex
100
AcDb2dVertex
 10
606.2865589764046
 20
458.3034734639982
 30
0.0
  0
VERTEX
  5
363
330
355
100
AcDbEntity
  8
Spigoli visibili(ISO)
100
AcDbVertex
100
AcDb2dVertex
 10
606.0184027906452
 20
458.2965608653504
 30
0.0
  0
VERTEX
  5
364
330
355
100
AcDbEntity
  8
Spigoli visibili(ISO)
100
AcDbVertex
100
AcDb2dVertex
 10
605.7502660889406
 20
458.3034757840462
 30
0.0
  0
VERTEX
  5
365
330
355
100
AcDbEntity
  8
Spigoli visibili(ISO)
100
AcDbVertex
100
AcDb2dVertex
 10
605.4813107863558
 20
458.3242631343177
 30
0.0
  0
VERTEX
  5
366
330
355
100
AcDbEntity
  8
Spigoli visibili(ISO)
100
AcDbVertex
100
AcDb2dVertex
 10
605.2107221610131
 20
458.3590332099762
 30
0.0
  0
VERTEX
  5
367
330
355
100
AcDbEntity
  8
Spigoli visibili(ISO)
100
AcDbVertex
100
AcDb2dVertex
 10
604.9377125652905
 20
458.4080187843956
 30
0.0
  0
VERTEX
  5
368
330
355
100
AcDbEntity
  8
Spigoli visibili(ISO)
100
AcDbVertex
100
AcDb2dVertex
 10
604.6614022775937
 20
458.4715063995964
 30
0.0
  0
VERTEX
  5
369
330
355
100
AcDbEntity
  8
Spigoli visibili(ISO)
100
AcDbVertex
100
AcDb2dVertex
 10
604.3808993468627
 20
458.5498885179653
 30
0.0
  0
VERTEX
  5
36A
330
355
100
AcDbEntity
  8
Spigoli visibili(ISO)
100
AcDbVertex
100
AcDb2dVertex
 10
604.0952989740396
 20
458.6436540055919
 30
0.0
  0
VERTEX
  5
36B
330
355
100
AcDbEntity
  8
Spigoli visibili(ISO)
100
AcDbVertex
100
AcDb2dVertex
 10
603.803588963964
 20
458.7534038342603
 30
0.0
  0
VERTEX
  5
36C
330
355
100
AcDbEntity
  8
Spigoli visibili(ISO)
100
AcDbVertex
100
AcDb2dVertex
 10
603.5047270957497
 20
458.8798651665143
 30
0.0
  0
VERTEX
  5
36D
330
355
100
AcDbEntity
  8
Spigoli visibili(ISO)
100
AcDbVertex
100
AcDb2dVertex
 10
603.1975821672016
 20
459.0238665168631
 30
0.0
  0
VERTEX
  5
36E
330
355
100
AcDbEntity
  8
Spigoli visibili(ISO)
100
AcDbVertex
100
AcDb2dVertex
 10
602.8809192912206
 20
459.1864056054928
 30
0.0
  0
VERTEX
  5
36F
330
355
100
AcDbEntity
  8
Spigoli visibili(ISO)
100
AcDbVertex
100
AcDb2dVertex
 10
602.5534183105979
 20
459.3686386045374
 30
0.0
  0
SEQEND
  5
358
330
355
100
AcDbEntity
  8
Spigoli visibili(ISO)
  0
LINE
  5
370
330
6C
100
AcDbEntity
  8
Spigoli visibili(ISO)
100
AcDbLine
 10
609.4834100349546
 20
459.3686370649897
 30
0.0
 11
609.4834100349546
 21
465.2208940636043
 31
0.0
  0
POLYLINE
  5
371
330
6C
100
AcDbEntity
  8
Spigoli visibili(ISO)
100
AcDb2dPolyline
 66
     1
 10
0.0
 20
0.0
 30
0.0
 70
   128
  0
VERTEX
  5
372
330
371
100
AcDbEntity
  8
Spigoli visibili(ISO)
100
AcDbVertex
100
AcDb2dVertex
 10
609.4834093333953
 20
465.2208922466956
 30
0.0
  0
VERTEX
  5
373
330
371
100
AcDbEntity
  8
Spigoli visibili(ISO)
100
AcDbVertex
100
AcDb2dVertex
 10
610.1384305472286
 20
465.4031254615672
 30
0.0
  0
VERTEX
  5
375
330
371
100
AcDbEntity
  8
Spigoli visibili(ISO)
100
AcDbVertex
100
AcDb2dVertex
 10
610.7717578282996
 20
465.5656575526951
 30
0.0
  0
VERTEX
  5
376
330
371
100
AcDbEntity
  8
Spigoli visibili(ISO)
100
AcDbVertex
100
AcDb2dVertex
 10
611.3860478889356
 20
465.7096633657714
 30
0.0
  0
VERTEX
  5
377
330
371
100
AcDbEntity
  8
Spigoli visibili(ISO)
100
AcDbVertex
100
AcDb2dVertex
 10
611.9837535004673
 20
465.8361207505459
 30
0.0
  0
VERTEX
  5
378
330
371
100
AcDbEntity
  8
Spigoli visibili(ISO)
100
AcDbVertex
100
AcDb2dVertex
 10
612.5671849229409
 20
465.945873466274
 30
0.0
  0
VERTEX
  5
379
330
371
100
AcDbEntity
  8
Spigoli visibili(ISO)
100
AcDbVertex
100
AcDb2dVertex
 10
613.1383963236857
 20
466.0396481207754
 30
0.0
  0
VERTEX
  5
37A
330
371
100
AcDbEntity
  8
Spigoli visibili(ISO)
100
AcDbVertex
100
AcDb2dVertex
 10
613.6993945253841
 20
466.1180310460463
 30
0.0
  0
VERTEX
  5
37B
330
371
100
AcDbEntity
  8
Spigoli visibili(ISO)
100
AcDbVertex
100
AcDb2dVertex
 10
614.2520272802372
 20
466.1815137873094
 30
0.0
  0
VERTEX
  5
37C
330
371
100
AcDbEntity
  8
Spigoli visibili(ISO)
100
AcDbVertex
100
AcDb2dVertex
 10
614.7980409884805
 20
466.2304989084799
 30
0.0
  0
VERTEX
  5
37D
330
371
100
AcDbEntity
  8
Spigoli visibili(ISO)
100
AcDbVertex
100
AcDb2dVertex
 10
615.3391936612826
 20
466.2652735364428
 30
0.0
  0
VERTEX
  5
37E
330
371
100
AcDbEntity
  8
Spigoli visibili(ISO)
100
AcDbVertex
100
AcDb2dVertex
 10
615.8771051282566
 20
466.2860573242349
 30
0.0
  0
VERTEX
  5
37F
330
371
100
AcDbEntity
  8
Spigoli visibili(ISO)
100
AcDbVertex
100
AcDb2dVertex
 10
616.4134080670146
 20
466.2929735211905
 30
0.0
  0
VERTEX
  5
380
330
371
100
AcDbEntity
  8
Spigoli visibili(ISO)
100
AcDbVertex
100
AcDb2dVertex
 10
616.9497099365125
 20
466.2860514470729
 30
0.0
  0
VERTEX
  5
381
330
371
100
AcDbEntity
  8
Spigoli visibili(ISO)
100
AcDbVertex
100
AcDb2dVertex
 10
617.4876341363683
 20
466.2652716012614
 30
0.0
  0
VERTEX
  5
382
330
371
100
AcDbEntity
  8
Spigoli visibili(ISO)
100
AcDbVertex
100
AcDb2dVertex
 10
618.0287769919457
 20
466.2304920035738
 30
0.0
  0
VERTEX
  5
383
330
371
100
AcDbEntity
  8
Spigoli visibili(ISO)
100
AcDbVertex
100
AcDb2dVertex
 10
618.5748072507196
 20
466.1815086255822
 30
0.0
  0
VERTEX
  5
384
330
371
100
AcDbEntity
  8
Spigoli visibili(ISO)
100
AcDbVertex
100
AcDb2dVertex
 10
619.1274261600238
 20
466.1180293147547
 30
0.0
  0
VERTEX
  5
385
330
371
100
AcDbEntity
  8
Spigoli visibili(ISO)
100
AcDbVertex
100
AcDb2dVertex
 10
619.6884227114337
 20
466.0396415332658
 30
0.0
  0
VERTEX
  5
386
330
371
100
AcDbEntity
  8
Spigoli visibili(ISO)
100
AcDbVertex
100
AcDb2dVertex
 10
620.2596399038423
 20
465.9458814487749
 30
0.0
  0
VERTEX
  5
387
330
371
100
AcDbEntity
  8
Spigoli visibili(ISO)
100
AcDbVertex
100
AcDb2dVertex
 10
620.8430631062346
 20
465.8361230657958
 30
0.0
  0
VERTEX
  5
388
330
371
100
AcDbEntity
  8
Spigoli visibili(ISO)
100
AcDbVertex
100
AcDb2dVertex
 10
621.4407875578291
 20
465.7096663498026
 30
0.0
  0
VERTEX
  5
389
330
371
100
AcDbEntity
  8
Spigoli visibili(ISO)
100
AcDbVertex
100
AcDb2dVertex
 10
622.0550711383297
 20
465.565666899385
 30
0.0
  0
VERTEX
  5
38A
330
371
100
AcDbEntity
  8
Spigoli visibili(ISO)
100
AcDbVertex
100
AcDb2dVertex
 10
622.6883908493746
 20
465.4031227183887
 30
0.0
  0
VERTEX
  5
38B
330
371
100
AcDbEntity
  8
Spigoli visibili(ISO)
100
AcDbVertex
100
AcDb2dVertex
 10
623.3434059849473
 20
465.2208957233736
 30
0.0
  0
SEQEND
  5
374
330
371
100
AcDbEntity
  8
Spigoli visibili(ISO)
  0
POLYLINE
  5
38C
330
6C
100
AcDbEntity
  8
Spigoli visibili(ISO)
100
AcDb2dPolyline
 66
     1
 10
0.0
 20
0.0
 30
0.0
 70
   128
  0
VERTEX
  5
38D
330
38C
100
AcDbEntity
  8
Spigoli visibili(ISO)
100
AcDbVertex
100
AcDb2dVertex
 10
623.3434031527259
 20
459.3686349214237
 30
0.0
  0
VERTEX
  5
38E
330
38C
100
AcDbEntity
  8
Spigoli visibili(ISO)
100
AcDbVertex
100
AcDb2dVertex
 10
622.6883825574254
 20
459.1864112232157
 30
0.0
  0
VERTEX
  5
390
330
38C
100
AcDbEntity
  8
Spigoli visibili(ISO)
100
AcDbVertex
100
AcDb2dVertex
 10
622.0550736911489
 20
459.0238683783584
 30
0.0
  0
VERTEX
  5
391
330
38C
100
AcDbEntity
  8
Spigoli visibili(ISO)
100
AcDbVertex
100
AcDb2dVertex
 10
621.4407836305128
 20
458.8798625652819
 30
0.0
  0
VERTEX
  5
392
330
38C
100
AcDbEntity
  8
Spigoli visibili(ISO)
100
AcDbVertex
100
AcDb2dVertex
 10
620.8430589856537
 20
458.7534064175733
 30
0.0
  0
VERTEX
  5
393
330
38C
100
AcDbEntity
  8
Spigoli visibili(ISO)
100
AcDbVertex
100
AcDb2dVertex
 10
620.2596465965076
 20
458.6436524647794
 30
0.0
  0
VERTEX
  5
394
330
38C
100
AcDbEntity
  8
Spigoli visibili(ISO)
100
AcDbVertex
100
AcDb2dVertex
 10
619.6884167809684
 20
458.5498885640077
 30
0.0
  0
VERTEX
  5
395
330
38C
100
AcDbEntity
  8
Spigoli visibili(ISO)
100
AcDbVertex
100
AcDb2dVertex
 10
619.1274185792699
 20
458.4715056387366
 30
0.0
  0
VERTEX
  5
396
330
38C
100
AcDbEntity
  8
Spigoli visibili(ISO)
100
AcDbVertex
100
AcDb2dVertex
 10
618.5748048577441
 20
458.4080216604077
 30
0.0
  0
VERTEX
  5
397
330
38C
100
AcDbEntity
  8
Spigoli visibili(ISO)
100
AcDbVertex
100
AcDb2dVertex
 10
618.0287721161735
 20
458.359037776303
 30
0.0
  0
VERTEX
  5
398
330
38C
100
AcDbEntity
  8
Spigoli visibili(ISO)
100
AcDbVertex
100
AcDb2dVertex
 10
617.4876194433716
 20
458.32426314834
 30
0.0
  0
VERTEX
  5
399
330
38C
100
AcDbEntity
  8
Spigoli visibili(ISO)
100
AcDbVertex
100
AcDb2dVertex
 10
616.9497079763975
 20
458.3034793605479
 30
0.0
  0
VERTEX
  5
39A
330
38C
100
AcDbEntity
  8
Spigoli visibili(ISO)
100
AcDbVertex
100
AcDb2dVertex
 10
616.4134050376394
 20
458.2965631635923
 30
0.0
  0
VERTEX
  5
39B
330
38C
100
AcDbEntity
  8
Spigoli visibili(ISO)
100
AcDbVertex
100
AcDb2dVertex
 10
615.8771025496086
 20
458.3034757210463
 30
0.0
  0
VERTEX
  5
39C
330
38C
100
AcDbEntity
  8
Spigoli visibili(ISO)
100
AcDbVertex
100
AcDb2dVertex
 10
615.33919738308
 20
458.3242543297919
 30
0.0
  0
VERTEX
  5
39D
330
38C
100
AcDbEntity
  8
Spigoli visibili(ISO)
100
AcDbVertex
100
AcDb2dVertex
 10
614.7980545275028
 20
458.3590339274796
 30
0.0
  0
VERTEX
  5
39E
330
38C
100
AcDbEntity
  8
Spigoli visibili(ISO)
100
AcDbVertex
100
AcDb2dVertex
 10
614.252024268729
 20
458.4080173054712
 30
0.0
  0
VERTEX
  5
39F
330
38C
100
AcDbEntity
  8
Spigoli visibili(ISO)
100
AcDbVertex
100
AcDb2dVertex
 10
613.6993869446302
 20
458.4715073700282
 30
0.0
  0
VERTEX
  5
3A0
330
38C
100
AcDbEntity
  8
Spigoli visibili(ISO)
100
AcDbVertex
100
AcDb2dVertex
 10
613.1384088080148
 20
458.5498843977876
 30
0.0
  0
VERTEX
  5
3A1
330
38C
100
AcDbEntity
  8
Spigoli visibili(ISO)
100
AcDbVertex
100
AcDb2dVertex
 10
612.5671732008117
 20
458.6436552360081
 30
0.0
  0
VERTEX
  5
3A2
330
38C
100
AcDbEntity
  8
Spigoli visibili(ISO)
100
AcDbVertex
100
AcDb2dVertex
 10
611.9837690317468
 20
458.7534123819211
 30
0.0
  0
VERTEX
  5
3A3
330
38C
100
AcDbEntity
  8
Spigoli visibili(ISO)
100
AcDbVertex
100
AcDb2dVertex
 10
611.3860445801524
 20
458.8798690979145
 30
0.0
  0
VERTEX
  5
3A4
330
38C
100
AcDbEntity
  8
Spigoli visibili(ISO)
100
AcDbVertex
100
AcDb2dVertex
 10
610.7717419663243
 20
459.0238697853979
 30
0.0
  0
VERTEX
  5
3A5
330
38C
100
AcDbEntity
  8
Spigoli visibili(ISO)
100
AcDbVertex
100
AcDb2dVertex
 10
610.1384412886068
 20
459.1864127293284
 30
0.0
  0
VERTEX
  5
3A6
330
38C
100
AcDbEntity
  8
Spigoli visibili(ISO)
100
AcDbVertex
100
AcDb2dVertex
 10
609.4834071197067
 20
459.3686409614093
 30
0.0
  0
SEQEND
  5
38F
330
38C
100
AcDbEntity
  8
Spigoli visibili(ISO)
  0
LINE
  5
3A7
330
6C
100
AcDbEntity
  8
Spigoli visibili(ISO)
100
AcDbLine
 10
623.3434100349549
 20
465.2208940636043
 30
0.0
 11
623.3434100349549
 21
459.3686370649897
 31
0.0
  0
POLYLINE
  5
3A8
330
6C
100
AcDbEntity
  8
Spigoli visibili(ISO)
100
AcDb2dPolyline
 66
     1
 10
0.0
 20
0.0
 30
0.0
 70
   128
  0
VERTEX
  5
3A9
330
3A8
100
AcDbEntity
  8
Spigoli visibili(ISO)
100
AcDbVertex
100
AcDb2dVertex
 10
623.3434059849473
 20
465.2208957233736
 30
0.0
  0
VERTEX
  5
3AA
330
3A8
100
AcDbEntity
  8
Spigoli visibili(ISO)
100
AcDbVertex
100
AcDb2dVertex
 10
623.6709130438311
 20
465.4031229342157
 30
0.0
  0
VERTEX
  5
3AC
330
3A8
100
AcDbEntity
  8
Spigoli visibili(ISO)
100
AcDbVertex
100
AcDb2dVertex
 10
623.9875834898383
 20
465.56566011771
 30
0.0
  0
VERTEX
  5
3AD
330
3A8
100
AcDbEntity
  8
Spigoli visibili(ISO)
100
AcDbVertex
100
AcDb2dVertex
 10
624.2947158651948
 20
465.7096652679212
 30
0.0
  0
VERTEX
  5
3AE
330
3A8
100
AcDbEntity
  8
Spigoli visibili(ISO)
100
AcDbVertex
100
AcDb2dVertex
 10
624.5935785452071
 20
465.8361263160328
 30
0.0
  0
VERTEX
  5
3AF
330
3A8
100
AcDbEntity
  8
Spigoli visibili(ISO)
100
AcDbVertex
100
AcDb2dVertex
 10
624.885296156831
 20
465.9458780694077
 30
0.0
  0
VERTEX
  5
3B0
330
3A8
100
AcDbEntity
  8
Spigoli visibili(ISO)
100
AcDbVertex
100
AcDb2dVertex
 10
625.1709097713181
 20
466.0396460837075
 30
0.0
  0
VERTEX
  5
3B1
330
3A8
100
AcDbEntity
  8
Spigoli visibili(ISO)
100
AcDbVertex
100
AcDb2dVertex
 10
625.4513947004777
 20
466.1180263925006
 30
0.0
  0
VERTEX
  5
3B2
330
3A8
100
AcDbEntity
  8
Spigoli visibili(ISO)
100
AcDbVertex
100
AcDb2dVertex
 10
625.7277194522567
 20
466.1815103460543
 30
0.0
  0
VERTEX
  5
3B3
330
3A8
100
AcDbEntity
  8
Spigoli visibili(ISO)
100
AcDbVertex
100
AcDb2dVertex
 10
626.0007315307762
 20
466.2304920337311
 30
0.0
  0
VERTEX
  5
3B4
330
3A8
100
AcDbEntity
  8
Spigoli visibili(ISO)
100
AcDbVertex
100
AcDb2dVertex
 10
626.2713103214835
 20
466.2652679041253
 30
0.0
  0
VERTEX
  5
3B5
330
3A8
100
AcDbEntity
  8
Spigoli visibili(ISO)
100
AcDbVertex
100
AcDb2dVertex
 10
626.5402535097198
 20
466.2860537041211
 30
0.0
  0
VERTEX
  5
3B6
330
3A8
100
AcDbEntity
  8
Spigoli visibili(ISO)
100
AcDbVertex
100
AcDb2dVertex
 10
626.8084096954794
 20
466.2929663027688
 30
0.0
  0
VERTEX
  5
3B7
330
3A8
100
AcDbEntity
  8
Spigoli visibili(ISO)
100
AcDbVertex
100
AcDb2dVertex
 10
627.0765654305116
 20
466.2860501470071
 30
0.0
  0
VERTEX
  5
3B8
330
3A8
100
AcDbEntity
  8
Spigoli visibili(ISO)
100
AcDbVertex
100
AcDb2dVertex
 10
627.3455213516298
 20
466.2652723133994
 30
0.0
  0
VERTEX
  5
3B9
330
3A8
100
AcDbEntity
  8
Spigoli visibili(ISO)
100
AcDbVertex
100
AcDb2dVertex
 10
627.6160903251125
 20
466.2304939581429
 30
0.0
  0
VERTEX
  5
3BA
330
3A8
100
AcDbEntity
  8
Spigoli visibili(ISO)
100
AcDbVertex
100
AcDb2dVertex
 10
627.8890999208353
 20
466.1815083837236
 30
0.0
  0
VERTEX
  5
3BB
330
3A8
100
AcDbEntity
  8
Spigoli visibili(ISO)
100
AcDbVertex
100
AcDb2dVertex
 10
628.1654108270653
 20
466.1180302851867
 30
0.0
  0
VERTEX
  5
3BC
330
3A8
100
AcDbEntity
  8
Spigoli visibili(ISO)
100
AcDbVertex
100
AcDb2dVertex
 10
628.4459137577966
 20
466.0396481668175
 30
0.0
  0
VERTEX
  5
3BD
330
3A8
100
AcDbEntity
  8
Spigoli visibili(ISO)
100
AcDbVertex
100
AcDb2dVertex
 10
628.7315331639474
 20
465.9458814421252
 30
0.0
  0
VERTEX
  5
3BE
330
3A8
100
AcDbEntity
  8
Spigoli visibili(ISO)
100
AcDbVertex
100
AcDb2dVertex
 10
629.0232425554902
 20
465.8361220967931
 30
0.0
  0
VERTEX
  5
3BF
330
3A8
100
AcDbEntity
  8
Spigoli visibili(ISO)
100
AcDbVertex
100
AcDb2dVertex
 10
629.3220860089105
 20
465.7096715182685
 30
0.0
  0
VERTEX
  5
3C0
330
3A8
100
AcDbEntity
  8
Spigoli visibili(ISO)
100
AcDbVertex
100
AcDb2dVertex
 10
629.6292493522535
 20
465.5656594141903
 30
0.0
  0
VERTEX
  5
3C1
330
3A8
100
AcDbEntity
  8
Spigoli visibili(ISO)
100
AcDbVertex
100
AcDb2dVertex
 10
629.9458931949073
 20
465.4031215626264
 30
0.0
  0
VERTEX
  5
3C2
330
3A8
100
AcDbEntity
  8
Spigoli visibili(ISO)
100
AcDbVertex
100
AcDb2dVertex
 10
630.2734138273906
 20
465.2208968431796
 30
0.0
  0
SEQEND
  5
3AB
330
3A8
100
AcDbEntity
  8
Spigoli visibili(ISO)
  0
POLYLINE
  5
3C3
330
6C
100
AcDbEntity
  8
Spigoli visibili(ISO)
100
AcDb2dPolyline
 66
     1
 10
0.0
 20
0.0
 30
0.0
 70
   128
  0
VERTEX
  5
3C4
330
3C3
100
AcDbEntity
  8
Spigoli visibili(ISO)
100
AcDbVertex
100
AcDb2dVertex
 10
630.2734109951691
 20
459.3686360412298
 30
0.0
  0
VERTEX
  5
3C5
330
3C3
100
AcDbEntity
  8
Spigoli visibili(ISO)
100
AcDbVertex
100
AcDb2dVertex
 10
629.9459039362854
 20
459.1864088303877
 30
0.0
  0
VERTEX
  5
3C7
330
3C3
100
AcDbEntity
  8
Spigoli visibili(ISO)
100
AcDbVertex
100
AcDb2dVertex
 10
629.6292334902782
 20
459.0238716468932
 30
0.0
  0
VERTEX
  5
3C8
330
3C3
100
AcDbEntity
  8
Spigoli visibili(ISO)
100
AcDbVertex
100
AcDb2dVertex
 10
629.3221011149216
 20
458.8798664966822
 30
0.0
  0
VERTEX
  5
3C9
330
3C3
100
AcDbEntity
  8
Spigoli visibili(ISO)
100
AcDbVertex
100
AcDb2dVertex
 10
629.0232384349094
 20
458.7534054485705
 30
0.0
  0
VERTEX
  5
3CA
330
3C3
100
AcDbEntity
  8
Spigoli visibili(ISO)
100
AcDbVertex
100
AcDb2dVertex
 10
628.7315208232854
 20
458.6436536951956
 30
0.0
  0
VERTEX
  5
3CB
330
3C3
100
AcDbEntity
  8
Spigoli visibili(ISO)
100
AcDbVertex
100
AcDb2dVertex
 10
628.4459072087984
 20
458.5498856808957
 30
0.0
  0
VERTEX
  5
3CC
330
3C3
100
AcDbEntity
  8
Spigoli visibili(ISO)
100
AcDbVertex
100
AcDb2dVertex
 10
628.1654222796388
 20
458.4715053721027
 30
0.0
  0
VERTEX
  5
3CD
330
3C3
100
AcDbEntity
  8
Spigoli visibili(ISO)
100
AcDbVertex
100
AcDb2dVertex
 10
627.8890975278599
 20
458.4080214185489
 30
0.0
  0
VERTEX
  5
3CE
330
3C3
100
AcDbEntity
  8
Spigoli visibili(ISO)
100
AcDbVertex
100
AcDb2dVertex
 10
627.6160854493402
 20
458.3590397308721
 30
0.0
  0
VERTEX
  5
3CF
330
3C3
100
AcDbEntity
  8
Spigoli visibili(ISO)
100
AcDbVertex
100
AcDb2dVertex
 10
627.3455256919604
 20
458.3242626234121
 30
0.0
  0
VERTEX
  5
3D0
330
3C3
100
AcDbEntity
  8
Spigoli visibili(ISO)
100
AcDbVertex
100
AcDb2dVertex
 10
627.0765634703967
 20
458.3034780604822
 30
0.0
  0
VERTEX
  5
3D1
330
3C3
100
AcDbEntity
  8
Spigoli visibili(ISO)
100
AcDbVertex
100
AcDb2dVertex
 10
626.808407284637
 20
458.2965654618345
 30
0.0
  0
VERTEX
  5
3D2
330
3C3
100
AcDbEntity
  8
Spigoli visibili(ISO)
100
AcDbVertex
100
AcDb2dVertex
 10
626.5402509310718
 20
458.3034721009324
 30
0.0
  0
VERTEX
  5
3D3
330
3C3
100
AcDbEntity
  8
Spigoli visibili(ISO)
100
AcDbVertex
100
AcDb2dVertex
 10
626.2712956284867
 20
458.3242594512039
 30
0.0
  0
VERTEX
  5
3D4
330
3C3
100
AcDbEntity
  8
Spigoli visibili(ISO)
100
AcDbVertex
100
AcDb2dVertex
 10
626.000726655004
 20
458.3590378064604
 30
0.0
  0
VERTEX
  5
3D5
330
3C3
100
AcDbEntity
  8
Spigoli visibili(ISO)
100
AcDbVertex
100
AcDb2dVertex
 10
625.7277164407483
 20
458.4080138642161
 30
0.0
  0
VERTEX
  5
3D6
330
3C3
100
AcDbEntity
  8
Spigoli visibili(ISO)
100
AcDbVertex
100
AcDb2dVertex
 10
625.4514061530511
 20
458.4715014794167
 30
0.0
  0
VERTEX
  5
3D7
330
3C3
100
AcDbEntity
  8
Spigoli visibili(ISO)
100
AcDbVertex
100
AcDb2dVertex
 10
625.1709032223199
 20
458.5498835977857
 30
0.0
  0
VERTEX
  5
3D8
330
3C3
100
AcDbEntity
  8
Spigoli visibili(ISO)
100
AcDbVertex
100
AcDb2dVertex
 10
624.8853028494965
 20
458.6436490854123
 30
0.0
  0
VERTEX
  5
3D9
330
3C3
100
AcDbEntity
  8
Spigoli visibili(ISO)
100
AcDbVertex
100
AcDb2dVertex
 10
624.5935934579535
 20
458.7534084307444
 30
0.0
  0
VERTEX
  5
3DA
330
3C3
100
AcDbEntity
  8
Spigoli visibili(ISO)
100
AcDbVertex
100
AcDb2dVertex
 10
624.2947309712059
 20
458.8798602463348
 30
0.0
  0
VERTEX
  5
3DB
330
3C3
100
AcDbEntity
  8
Spigoli visibili(ISO)
100
AcDbVertex
100
AcDb2dVertex
 10
623.9875866611903
 20
459.0238711133472
 30
0.0
  0
VERTEX
  5
3DC
330
3C3
100
AcDbEntity
  8
Spigoli visibili(ISO)
100
AcDbVertex
100
AcDb2dVertex
 10
623.6709237852092
 20
459.1864102019768
 30
0.0
  0
VERTEX
  5
3DD
330
3C3
100
AcDbEntity
  8
Spigoli visibili(ISO)
100
AcDbVertex
100
AcDb2dVertex
 10
623.3434031527259
 20
459.3686349214237
 30
0.0
  0
SEQEND
  5
3C6
330
3C3
100
AcDbEntity
  8
Spigoli visibili(ISO)
  0
LINE
  5
3DE
330
6C
100
AcDbEntity
  8
Spigoli visibili(ISO)
100
AcDbLine
 10
630.2734100349583
 20
465.2208940636042
 30
0.0
 11
630.2734100349583
 21
459.3686370649898
 31
0.0
  0
LINE
  5
3DF
330
6C
100
AcDbEntity
  8
Spigoli visibili(ISO)
100
AcDbLine
 10
604.4134100349583
 20
458.294765564297
 30
0.0
 11
602.5534100349585
 21
459.3686370649897
 31
0.0
  0
LINE
  5
3E0
330
6C
100
AcDbEntity
  8
Spigoli visibili(ISO)
100
AcDbLine
 10
628.4134100349583
 20
458.294765564297
 30
0.0
 11
630.2734100349583
 21
459.3686370649897
 31
0.0
  0
LINE
  5
3E1
330
6C
100
AcDbEntity
  8
Spigoli visibili(ISO)
100
AcDbLine
 10
628.4134100349582
 20
466.294765564297
 30
0.0
 11
630.2734100349583
 21
465.2208940636042
 31
0.0
  0
LINE
  5
3E2
330
6C
100
AcDbEntity
  8
Spigoli visibili(ISO)
100
AcDbLine
 10
604.4134100349583
 20
466.294765564297
 30
0.0
 11
602.5534100349585
 21
465.2208940636042
 31
0.0
  0
LINE
  5
3E3
330
6C
100
AcDbEntity
  8
Spigoli visibili(ISO)
100
AcDbLine
 10
602.5534100349582
 20
477.2208940636044
 30
0.0
 11
602.5534100349585
 21
471.3686370649898
 31
0.0
  0
POLYLINE
  5
3E4
330
6C
100
AcDbEntity
  8
Spigoli visibili(ISO)
100
AcDb2dPolyline
 66
     1
 10
0.0
 20
0.0
 30
0.0
 70
   128
  0
VERTEX
  5
3E5
330
3E4
100
AcDbEntity
  8
Spigoli visibili(ISO)
100
AcDbVertex
100
AcDb2dVertex
 10
602.5534014909591
 20
477.2208911268895
 30
0.0
  0
VERTEX
  5
3E6
330
3E4
100
AcDbEntity
  8
Spigoli visibili(ISO)
100
AcDbVertex
100
AcDb2dVertex
 10
602.8809275831699
 20
477.4031171006658
 30
0.0
  0
VERTEX
  5
3E8
330
3E4
100
AcDbEntity
  8
Spigoli visibili(ISO)
100
AcDbVertex
100
AcDb2dVertex
 10
603.1975796143822
 20
477.5656650378897
 30
0.0
  0
VERTEX
  5
3E9
330
3E4
100
AcDbEntity
  8
Spigoli visibili(ISO)
100
AcDbVertex
100
AcDb2dVertex
 10
603.5047310230658
 20
477.709668951035
 30
0.0
  0
VERTEX
  5
3EA
330
3E4
100
AcDbEntity
  8
Spigoli visibili(ISO)
100
AcDbVertex
100
AcDb2dVertex
 10
603.803593084545
 20
477.836120482483
 30
0.0
  0
VERTEX
  5
3EB
330
3E4
100
AcDbEntity
  8
Spigoli visibili(ISO)
100
AcDbVertex
100
AcDb2dVertex
 10
604.0952916628413
 20
477.9458734729236
 30
0.0
  0
VERTEX
  5
3EC
330
3E4
100
AcDbEntity
  8
Spigoli visibili(ISO)
100
AcDbVertex
100
AcDb2dVertex
 10
604.3809052773281
 20
478.0396414872235
 30
0.0
  0
VERTEX
  5
3ED
330
3E4
100
AcDbEntity
  8
Spigoli visibili(ISO)
100
AcDbVertex
100
AcDb2dVertex
 10
604.6614098583475
 20
478.1180300756143
 30
0.0
  0
VERTEX
  5
3EE
330
3E4
100
AcDbEntity
  8
Spigoli visibili(ISO)
100
AcDbVertex
100
AcDb2dVertex
 10
604.9377155767989
 20
478.1815152662339
 30
0.0
  0
VERTEX
  5
3EF
330
3E4
100
AcDbEntity
  8
Spigoli visibili(ISO)
100
AcDbVertex
100
AcDb2dVertex
 10
605.2107276553182
 20
478.2304969539108
 30
0.0
  0
VERTEX
  5
3F0
330
3E4
100
AcDbEntity
  8
Spigoli visibili(ISO)
100
AcDbVertex
100
AcDb2dVertex
 10
605.4813064460252
 20
478.2652728243049
 30
0.0
  0
VERTEX
  5
3F1
330
3E4
100
AcDbEntity
  8
Spigoli visibili(ISO)
100
AcDbVertex
100
AcDb2dVertex
 10
605.7502496342611
 20
478.2860586243007
 30
0.0
  0
VERTEX
  5
3F2
330
3E4
100
AcDbEntity
  8
Spigoli visibili(ISO)
100
AcDbVertex
100
AcDb2dVertex
 10
606.0184058200206
 20
478.2929712229485
 30
0.0
  0
VERTEX
  5
3F3
330
3E4
100
AcDbEntity
  8
Spigoli visibili(ISO)
100
AcDbVertex
100
AcDb2dVertex
 10
606.2865615550525
 20
478.2860550671868
 30
0.0
  0
VERTEX
  5
3F4
330
3E4
100
AcDbEntity
  8
Spigoli visibili(ISO)
100
AcDbVertex
100
AcDb2dVertex
 10
606.5555168576374
 20
478.2652677169154
 30
0.0
  0
VERTEX
  5
3F5
330
3E4
100
AcDbEntity
  8
Spigoli visibili(ISO)
100
AcDbVertex
100
AcDb2dVertex
 10
606.8260864496527
 20
478.2304988783225
 30
0.0
  0
VERTEX
  5
3F6
330
3E4
100
AcDbEntity
  8
Spigoli visibili(ISO)
100
AcDbVertex
100
AcDb2dVertex
 10
607.0991150787026
 20
478.1815120668375
 30
0.0
  0
VERTEX
  5
3F7
330
3E4
100
AcDbEntity
  8
Spigoli visibili(ISO)
100
AcDbVertex
100
AcDb2dVertex
 10
607.3754253663994
 20
478.1180244516368
 30
0.0
  0
VERTEX
  5
3F8
330
3E4
100
AcDbEntity
  8
Spigoli visibili(ISO)
100
AcDbVertex
100
AcDb2dVertex
 10
607.6559092638031
 20
478.0396435703336
 30
0.0
  0
VERTEX
  5
3F9
330
3E4
100
AcDbEntity
  8
Spigoli visibili(ISO)
100
AcDbVertex
100
AcDb2dVertex
 10
607.9415286699536
 20
477.9458768456412
 30
0.0
  0
VERTEX
  5
3FA
330
3E4
100
AcDbEntity
  8
Spigoli visibili(ISO)
100
AcDbVertex
100
AcDb2dVertex
 10
608.2332386800289
 20
477.8361270169726
 30
0.0
  0
VERTEX
  5
3FB
330
3E4
100
AcDbEntity
  8
Spigoli visibili(ISO)
100
AcDbVertex
100
AcDb2dVertex
 10
608.5321005482435
 20
477.7096656847186
 30
0.0
  0
VERTEX
  5
3FC
330
3E4
100
AcDbEntity
  8
Spigoli visibili(ISO)
100
AcDbVertex
100
AcDb2dVertex
 10
608.8392454767917
 20
477.56566433437
 30
0.0
  0
VERTEX
  5
3FD
330
3E4
100
AcDbEntity
  8
Spigoli visibili(ISO)
100
AcDbVertex
100
AcDb2dVertex
 10
609.1558893194452
 20
477.403126482806
 30
0.0
  0
VERTEX
  5
3FE
330
3E4
100
AcDbEntity
  8
Spigoli visibili(ISO)
100
AcDbVertex
100
AcDb2dVertex
 10
609.4834093333952
 20
477.2208922466957
 30
0.0
  0
SEQEND
  5
3E7
330
3E4
100
AcDbEntity
  8
Spigoli visibili(ISO)
  0
POLYLINE
  5
3FF
330
6C
100
AcDbEntity
  8
Spigoli visibili(ISO)
100
AcDb2dPolyline
 66
     1
 10
0.0
 20
0.0
 30
0.0
 70
   128
  0
VERTEX
  5
400
330
3FF
100
AcDbEntity
  8
Spigoli visibili(ISO)
100
AcDbVertex
100
AcDb2dVertex
 10
609.4834071197067
 20
471.3686409614093
 30
0.0
  0
VERTEX
  5
401
330
3FF
100
AcDbEntity
  8
Spigoli visibili(ISO)
100
AcDbVertex
100
AcDb2dVertex
 10
609.1559000608232
 20
471.1864137505672
 30
0.0
  0
VERTEX
  5
403
330
3FF
100
AcDbEntity
  8
Spigoli visibili(ISO)
100
AcDbVertex
100
AcDb2dVertex
 10
608.8392480296108
 20
471.0238658133433
 30
0.0
  0
VERTEX
  5
404
330
3FF
100
AcDbEntity
  8
Spigoli visibili(ISO)
100
AcDbVertex
100
AcDb2dVertex
 10
608.5320966209272
 20
470.8798619001981
 30
0.0
  0
VERTEX
  5
405
330
3FF
100
AcDbEntity
  8
Spigoli visibili(ISO)
100
AcDbVertex
100
AcDb2dVertex
 10
608.2332345594481
 20
470.7534103687502
 30
0.0
  0
VERTEX
  5
406
330
3FF
100
AcDbEntity
  8
Spigoli visibili(ISO)
100
AcDbVertex
100
AcDb2dVertex
 10
607.9415169478245
 20
470.6436586153752
 30
0.0
  0
VERTEX
  5
407
330
3FF
100
AcDbEntity
  8
Spigoli visibili(ISO)
100
AcDbVertex
100
AcDb2dVertex
 10
607.6559217481322
 20
470.5498798473459
 30
0.0
  0
VERTEX
  5
408
330
3FF
100
AcDbEntity
  8
Spigoli visibili(ISO)
100
AcDbVertex
100
AcDb2dVertex
 10
607.3754177856455
 20
470.4715007756187
 30
0.0
  0
VERTEX
  5
409
330
3FF
100
AcDbEntity
  8
Spigoli visibili(ISO)
100
AcDbVertex
100
AcDb2dVertex
 10
607.0991120671942
 20
470.4080155849991
 30
0.0
  0
VERTEX
  5
40A
330
3FF
100
AcDbEntity
  8
Spigoli visibili(ISO)
100
AcDbVertex
100
AcDb2dVertex
 10
606.8260809553476
 20
470.3590351343881
 30
0.0
  0
VERTEX
  5
40B
330
3FF
100
AcDbEntity
  8
Spigoli visibili(ISO)
100
AcDbVertex
100
AcDb2dVertex
 10
606.5555211979678
 20
470.3242580269281
 30
0.0
  0
VERTEX
  5
40C
330
3FF
100
AcDbEntity
  8
Spigoli visibili(ISO)
100
AcDbVertex
100
AcDb2dVertex
 10
606.2865589764046
 20
470.3034734639982
 30
0.0
  0
VERTEX
  5
40D
330
3FF
100
AcDbEntity
  8
Spigoli visibili(ISO)
100
AcDbVertex
100
AcDb2dVertex
 10
606.0184027906452
 20
470.2965608653504
 30
0.0
  0
VERTEX
  5
40E
330
3FF
100
AcDbEntity
  8
Spigoli visibili(ISO)
100
AcDbVertex
100
AcDb2dVertex
 10
605.7502660889406
 20
470.3034757840462
 30
0.0
  0
VERTEX
  5
40F
330
3FF
100
AcDbEntity
  8
Spigoli visibili(ISO)
100
AcDbVertex
100
AcDb2dVertex
 10
605.4813107863557
 20
470.3242631343177
 30
0.0
  0
VERTEX
  5
410
330
3FF
100
AcDbEntity
  8
Spigoli visibili(ISO)
100
AcDbVertex
100
AcDb2dVertex
 10
605.2107221610131
 20
470.3590332099763
 30
0.0
  0
VERTEX
  5
411
330
3FF
100
AcDbEntity
  8
Spigoli visibili(ISO)
100
AcDbVertex
100
AcDb2dVertex
 10
604.9377125652905
 20
470.4080187843956
 30
0.0
  0
VERTEX
  5
412
330
3FF
100
AcDbEntity
  8
Spigoli visibili(ISO)
100
AcDbVertex
100
AcDb2dVertex
 10
604.6614022775936
 20
470.4715063995963
 30
0.0
  0
VERTEX
  5
413
330
3FF
100
AcDbEntity
  8
Spigoli visibili(ISO)
100
AcDbVertex
100
AcDb2dVertex
 10
604.3808993468627
 20
470.5498885179653
 30
0.0
  0
VERTEX
  5
414
330
3FF
100
AcDbEntity
  8
Spigoli visibili(ISO)
100
AcDbVertex
100
AcDb2dVertex
 10
604.0952989740396
 20
470.643654005592
 30
0.0
  0
VERTEX
  5
415
330
3FF
100
AcDbEntity
  8
Spigoli visibili(ISO)
100
AcDbVertex
100
AcDb2dVertex
 10
603.803588963964
 20
470.7534038342603
 30
0.0
  0
VERTEX
  5
416
330
3FF
100
AcDbEntity
  8
Spigoli visibili(ISO)
100
AcDbVertex
100
AcDb2dVertex
 10
603.5047270957496
 20
470.8798651665143
 30
0.0
  0
VERTEX
  5
417
330
3FF
100
AcDbEntity
  8
Spigoli visibili(ISO)
100
AcDbVertex
100
AcDb2dVertex
 10
603.1975821672014
 20
471.0238665168631
 30
0.0
  0
VERTEX
  5
418
330
3FF
100
AcDbEntity
  8
Spigoli visibili(ISO)
100
AcDbVertex
100
AcDb2dVertex
 10
602.8809192912206
 20
471.1864056054928
 30
0.0
  0
VERTEX
  5
419
330
3FF
100
AcDbEntity
  8
Spigoli visibili(ISO)
100
AcDbVertex
100
AcDb2dVertex
 10
602.5534183105978
 20
471.3686386045374
 30
0.0
  0
SEQEND
  5
402
330
3FF
100
AcDbEntity
  8
Spigoli visibili(ISO)
  0
LINE
  5
41A
330
6C
100
AcDbEntity
  8
Spigoli visibili(ISO)
100
AcDbLine
 10
609.4834100349546
 20
471.3686370649896
 30
0.0
 11
609.4834100349546
 21
477.2208940636044
 31
0.0
  0
POLYLINE
  5
41B
330
6C
100
AcDbEntity
  8
Spigoli visibili(ISO)
100
AcDb2dPolyline
 66
     1
 10
0.0
 20
0.0
 30
0.0
 70
   128
  0
VERTEX
  5
41C
330
41B
100
AcDbEntity
  8
Spigoli visibili(ISO)
100
AcDbVertex
100
AcDb2dVertex
 10
609.4834093333952
 20
477.2208922466957
 30
0.0
  0
VERTEX
  5
41D
330
41B
100
AcDbEntity
  8
Spigoli visibili(ISO)
100
AcDbVertex
100
AcDb2dVertex
 10
610.1384305472286
 20
477.4031254615672
 30
0.0
  0
VERTEX
  5
41F
330
41B
100
AcDbEntity
  8
Spigoli visibili(ISO)
100
AcDbVertex
100
AcDb2dVertex
 10
610.7717578282996
 20
477.5656575526951
 30
0.0
  0
VERTEX
  5
420
330
41B
100
AcDbEntity
  8
Spigoli visibili(ISO)
100
AcDbVertex
100
AcDb2dVertex
 10
611.3860478889355
 20
477.7096633657714
 30
0.0
  0
VERTEX
  5
421
330
41B
100
AcDbEntity
  8
Spigoli visibili(ISO)
100
AcDbVertex
100
AcDb2dVertex
 10
611.9837535004673
 20
477.836120750546
 30
0.0
  0
VERTEX
  5
422
330
41B
100
AcDbEntity
  8
Spigoli visibili(ISO)
100
AcDbVertex
100
AcDb2dVertex
 10
612.5671849229409
 20
477.945873466274
 30
0.0
  0
VERTEX
  5
423
330
41B
100
AcDbEntity
  8
Spigoli visibili(ISO)
100
AcDbVertex
100
AcDb2dVertex
 10
613.1383963236857
 20
478.0396481207754
 30
0.0
  0
VERTEX
  5
424
330
41B
100
AcDbEntity
  8
Spigoli visibili(ISO)
100
AcDbVertex
100
AcDb2dVertex
 10
613.6993945253841
 20
478.1180310460463
 30
0.0
  0
VERTEX
  5
425
330
41B
100
AcDbEntity
  8
Spigoli visibili(ISO)
100
AcDbVertex
100
AcDb2dVertex
 10
614.2520272802372
 20
478.1815137873095
 30
0.0
  0
VERTEX
  5
426
330
41B
100
AcDbEntity
  8
Spigoli visibili(ISO)
100
AcDbVertex
100
AcDb2dVertex
 10
614.7980409884805
 20
478.2304989084799
 30
0.0
  0
VERTEX
  5
427
330
41B
100
AcDbEntity
  8
Spigoli visibili(ISO)
100
AcDbVertex
100
AcDb2dVertex
 10
615.3391936612824
 20
478.2652735364428
 30
0.0
  0
VERTEX
  5
428
330
41B
100
AcDbEntity
  8
Spigoli visibili(ISO)
100
AcDbVertex
100
AcDb2dVertex
 10
615.8771051282565
 20
478.2860573242349
 30
0.0
  0
VERTEX
  5
429
330
41B
100
AcDbEntity
  8
Spigoli visibili(ISO)
100
AcDbVertex
100
AcDb2dVertex
 10
616.4134080670146
 20
478.2929735211905
 30
0.0
  0
VERTEX
  5
42A
330
41B
100
AcDbEntity
  8
Spigoli visibili(ISO)
100
AcDbVertex
100
AcDb2dVertex
 10
616.9497099365124
 20
478.2860514470729
 30
0.0
  0
VERTEX
  5
42B
330
41B
100
AcDbEntity
  8
Spigoli visibili(ISO)
100
AcDbVertex
100
AcDb2dVertex
 10
617.4876341363683
 20
478.2652716012615
 30
0.0
  0
VERTEX
  5
42C
330
41B
100
AcDbEntity
  8
Spigoli visibili(ISO)
100
AcDbVertex
100
AcDb2dVertex
 10
618.0287769919457
 20
478.2304920035739
 30
0.0
  0
VERTEX
  5
42D
330
41B
100
AcDbEntity
  8
Spigoli visibili(ISO)
100
AcDbVertex
100
AcDb2dVertex
 10
618.5748072507195
 20
478.1815086255823
 30
0.0
  0
VERTEX
  5
42E
330
41B
100
AcDbEntity
  8
Spigoli visibili(ISO)
100
AcDbVertex
100
AcDb2dVertex
 10
619.1274261600238
 20
478.1180293147547
 30
0.0
  0
VERTEX
  5
42F
330
41B
100
AcDbEntity
  8
Spigoli visibili(ISO)
100
AcDbVertex
100
AcDb2dVertex
 10
619.6884227114336
 20
478.0396415332659
 30
0.0
  0
VERTEX
  5
430
330
41B
100
AcDbEntity
  8
Spigoli visibili(ISO)
100
AcDbVertex
100
AcDb2dVertex
 10
620.2596399038423
 20
477.9458814487749
 30
0.0
  0
VERTEX
  5
431
330
41B
100
AcDbEntity
  8
Spigoli visibili(ISO)
100
AcDbVertex
100
AcDb2dVertex
 10
620.8430631062344
 20
477.8361230657958
 30
0.0
  0
VERTEX
  5
432
330
41B
100
AcDbEntity
  8
Spigoli visibili(ISO)
100
AcDbVertex
100
AcDb2dVertex
 10
621.440787557829
 20
477.7096663498026
 30
0.0
  0
VERTEX
  5
433
330
41B
100
AcDbEntity
  8
Spigoli visibili(ISO)
100
AcDbVertex
100
AcDb2dVertex
 10
622.0550711383296
 20
477.565666899385
 30
0.0
  0
VERTEX
  5
434
330
41B
100
AcDbEntity
  8
Spigoli visibili(ISO)
100
AcDbVertex
100
AcDb2dVertex
 10
622.6883908493746
 20
477.4031227183887
 30
0.0
  0
VERTEX
  5
435
330
41B
100
AcDbEntity
  8
Spigoli visibili(ISO)
100
AcDbVertex
100
AcDb2dVertex
 10
623.3434059849473
 20
477.2208957233736
 30
0.0
  0
SEQEND
  5
41E
330
41B
100
AcDbEntity
  8
Spigoli visibili(ISO)
  0
POLYLINE
  5
436
330
6C
100
AcDbEntity
  8
Spigoli visibili(ISO)
100
AcDb2dPolyline
 66
     1
 10
0.0
 20
0.0
 30
0.0
 70
   128
  0
VERTEX
  5
437
330
436
100
AcDbEntity
  8
Spigoli visibili(ISO)
100
AcDbVertex
100
AcDb2dVertex
 10
623.3434031527258
 20
471.3686349214237
 30
0.0
  0
VERTEX
  5
438
330
436
100
AcDbEntity
  8
Spigoli visibili(ISO)
100
AcDbVertex
100
AcDb2dVertex
 10
622.6883825574254
 20
471.1864112232158
 30
0.0
  0
VERTEX
  5
43A
330
436
100
AcDbEntity
  8
Spigoli visibili(ISO)
100
AcDbVertex
100
AcDb2dVertex
 10
622.0550736911489
 20
471.0238683783584
 30
0.0
  0
VERTEX
  5
43B
330
436
100
AcDbEntity
  8
Spigoli visibili(ISO)
100
AcDbVertex
100
AcDb2dVertex
 10
621.4407836305127
 20
470.879862565282
 30
0.0
  0
VERTEX
  5
43C
330
436
100
AcDbEntity
  8
Spigoli visibili(ISO)
100
AcDbVertex
100
AcDb2dVertex
 10
620.8430589856536
 20
470.7534064175733
 30
0.0
  0
VERTEX
  5
43D
330
436
100
AcDbEntity
  8
Spigoli visibili(ISO)
100
AcDbVertex
100
AcDb2dVertex
 10
620.2596465965076
 20
470.6436524647795
 30
0.0
  0
VERTEX
  5
43E
330
436
100
AcDbEntity
  8
Spigoli visibili(ISO)
100
AcDbVertex
100
AcDb2dVertex
 10
619.6884167809683
 20
470.5498885640077
 30
0.0
  0
VERTEX
  5
43F
330
436
100
AcDbEntity
  8
Spigoli visibili(ISO)
100
AcDbVertex
100
AcDb2dVertex
 10
619.1274185792699
 20
470.4715056387367
 30
0.0
  0
VERTEX
  5
440
330
436
100
AcDbEntity
  8
Spigoli visibili(ISO)
100
AcDbVertex
100
AcDb2dVertex
 10
618.5748048577441
 20
470.4080216604077
 30
0.0
  0
VERTEX
  5
441
330
436
100
AcDbEntity
  8
Spigoli visibili(ISO)
100
AcDbVertex
100
AcDb2dVertex
 10
618.0287721161733
 20
470.3590377763031
 30
0.0
  0
VERTEX
  5
442
330
436
100
AcDbEntity
  8
Spigoli visibili(ISO)
100
AcDbVertex
100
AcDb2dVertex
 10
617.4876194433714
 20
470.3242631483401
 30
0.0
  0
VERTEX
  5
443
330
436
100
AcDbEntity
  8
Spigoli visibili(ISO)
100
AcDbVertex
100
AcDb2dVertex
 10
616.9497079763975
 20
470.3034793605479
 30
0.0
  0
VERTEX
  5
444
330
436
100
AcDbEntity
  8
Spigoli visibili(ISO)
100
AcDbVertex
100
AcDb2dVertex
 10
616.4134050376394
 20
470.2965631635924
 30
0.0
  0
VERTEX
  5
445
330
436
100
AcDbEntity
  8
Spigoli visibili(ISO)
100
AcDbVertex
100
AcDb2dVertex
 10
615.8771025496086
 20
470.3034757210463
 30
0.0
  0
VERTEX
  5
446
330
436
100
AcDbEntity
  8
Spigoli visibili(ISO)
100
AcDbVertex
100
AcDb2dVertex
 10
615.33919738308
 20
470.3242543297919
 30
0.0
  0
VERTEX
  5
447
330
436
100
AcDbEntity
  8
Spigoli visibili(ISO)
100
AcDbVertex
100
AcDb2dVertex
 10
614.7980545275028
 20
470.3590339274796
 30
0.0
  0
VERTEX
  5
448
330
436
100
AcDbEntity
  8
Spigoli visibili(ISO)
100
AcDbVertex
100
AcDb2dVertex
 10
614.2520242687289
 20
470.4080173054712
 30
0.0
  0
VERTEX
  5
449
330
436
100
AcDbEntity
  8
Spigoli visibili(ISO)
100
AcDbVertex
100
AcDb2dVertex
 10
613.6993869446302
 20
470.4715073700282
 30
0.0
  0
VERTEX
  5
44A
330
436
100
AcDbEntity
  8
Spigoli visibili(ISO)
100
AcDbVertex
100
AcDb2dVertex
 10
613.1384088080148
 20
470.5498843977876
 30
0.0
  0
VERTEX
  5
44B
330
436
100
AcDbEntity
  8
Spigoli visibili(ISO)
100
AcDbVertex
100
AcDb2dVertex
 10
612.5671732008117
 20
470.6436552360081
 30
0.0
  0
VERTEX
  5
44C
330
436
100
AcDbEntity
  8
Spigoli visibili(ISO)
100
AcDbVertex
100
AcDb2dVertex
 10
611.9837690317468
 20
470.7534123819212
 30
0.0
  0
VERTEX
  5
44D
330
436
100
AcDbEntity
  8
Spigoli visibili(ISO)
100
AcDbVertex
100
AcDb2dVertex
 10
611.3860445801524
 20
470.8798690979145
 30
0.0
  0
VERTEX
  5
44E
330
436
100
AcDbEntity
  8
Spigoli visibili(ISO)
100
AcDbVertex
100
AcDb2dVertex
 10
610.7717419663243
 20
471.023869785398
 30
0.0
  0
VERTEX
  5
44F
330
436
100
AcDbEntity
  8
Spigoli visibili(ISO)
100
AcDbVertex
100
AcDb2dVertex
 10
610.1384412886067
 20
471.1864127293284
 30
0.0
  0
VERTEX
  5
450
330
436
100
AcDbEntity
  8
Spigoli visibili(ISO)
100
AcDbVertex
100
AcDb2dVertex
 10
609.4834071197067
 20
471.3686409614093
 30
0.0
  0
SEQEND
  5
439
330
436
100
AcDbEntity
  8
Spigoli visibili(ISO)
  0
LINE
  5
451
330
6C
100
AcDbEntity
  8
Spigoli visibili(ISO)
100
AcDbLine
 10
623.3434100349549
 20
477.2208940636044
 30
0.0
 11
623.3434100349549
 21
471.3686370649898
 31
0.0
  0
POLYLINE
  5
452
330
6C
100
AcDbEntity
  8
Spigoli visibili(ISO)
100
AcDb2dPolyline
 66
     1
 10
0.0
 20
0.0
 30
0.0
 70
   128
  0
VERTEX
  5
453
330
452
100
AcDbEntity
  8
Spigoli visibili(ISO)
100
AcDbVertex
100
AcDb2dVertex
 10
623.3434059849473
 20
477.2208957233736
 30
0.0
  0
VERTEX
  5
454
330
452
100
AcDbEntity
  8
Spigoli visibili(ISO)
100
AcDbVertex
100
AcDb2dVertex
 10
623.6709130438311
 20
477.4031229342157
 30
0.0
  0
VERTEX
  5
456
330
452
100
AcDbEntity
  8
Spigoli visibili(ISO)
100
AcDbVertex
100
AcDb2dVertex
 10
623.9875834898382
 20
477.5656601177101
 30
0.0
  0
VERTEX
  5
457
330
452
100
AcDbEntity
  8
Spigoli visibili(ISO)
100
AcDbVertex
100
AcDb2dVertex
 10
624.2947158651948
 20
477.7096652679212
 30
0.0
  0
VERTEX
  5
458
330
452
100
AcDbEntity
  8
Spigoli visibili(ISO)
100
AcDbVertex
100
AcDb2dVertex
 10
624.5935785452071
 20
477.8361263160329
 30
0.0
  0
VERTEX
  5
459
330
452
100
AcDbEntity
  8
Spigoli visibili(ISO)
100
AcDbVertex
100
AcDb2dVertex
 10
624.885296156831
 20
477.9458780694077
 30
0.0
  0
VERTEX
  5
45A
330
452
100
AcDbEntity
  8
Spigoli visibili(ISO)
100
AcDbVertex
100
AcDb2dVertex
 10
625.1709097713181
 20
478.0396460837076
 30
0.0
  0
VERTEX
  5
45B
330
452
100
AcDbEntity
  8
Spigoli visibili(ISO)
100
AcDbVertex
100
AcDb2dVertex
 10
625.4513947004776
 20
478.1180263925006
 30
0.0
  0
VERTEX
  5
45C
330
452
100
AcDbEntity
  8
Spigoli visibili(ISO)
100
AcDbVertex
100
AcDb2dVertex
 10
625.7277194522567
 20
478.1815103460543
 30
0.0
  0
VERTEX
  5
45D
330
452
100
AcDbEntity
  8
Spigoli visibili(ISO)
100
AcDbVertex
100
AcDb2dVertex
 10
626.0007315307762
 20
478.2304920337312
 30
0.0
  0
VERTEX
  5
45E
330
452
100
AcDbEntity
  8
Spigoli visibili(ISO)
100
AcDbVertex
100
AcDb2dVertex
 10
626.2713103214835
 20
478.2652679041254
 30
0.0
  0
VERTEX
  5
45F
330
452
100
AcDbEntity
  8
Spigoli visibili(ISO)
100
AcDbVertex
100
AcDb2dVertex
 10
626.5402535097198
 20
478.2860537041211
 30
0.0
  0
VERTEX
  5
460
330
452
100
AcDbEntity
  8
Spigoli visibili(ISO)
100
AcDbVertex
100
AcDb2dVertex
 10
626.8084096954794
 20
478.2929663027689
 30
0.0
  0
VERTEX
  5
461
330
452
100
AcDbEntity
  8
Spigoli visibili(ISO)
100
AcDbVertex
100
AcDb2dVertex
 10
627.0765654305116
 20
478.2860501470072
 30
0.0
  0
VERTEX
  5
462
330
452
100
AcDbEntity
  8
Spigoli visibili(ISO)
100
AcDbVertex
100
AcDb2dVertex
 10
627.3455213516298
 20
478.2652723133995
 30
0.0
  0
VERTEX
  5
463
330
452
100
AcDbEntity
  8
Spigoli visibili(ISO)
100
AcDbVertex
100
AcDb2dVertex
 10
627.6160903251125
 20
478.2304939581429
 30
0.0
  0
VERTEX
  5
464
330
452
100
AcDbEntity
  8
Spigoli visibili(ISO)
100
AcDbVertex
100
AcDb2dVertex
 10
627.8890999208353
 20
478.1815083837236
 30
0.0
  0
VERTEX
  5
465
330
452
100
AcDbEntity
  8
Spigoli visibili(ISO)
100
AcDbVertex
100
AcDb2dVertex
 10
628.1654108270653
 20
478.1180302851867
 30
0.0
  0
VERTEX
  5
466
330
452
100
AcDbEntity
  8
Spigoli visibili(ISO)
100
AcDbVertex
100
AcDb2dVertex
 10
628.4459137577965
 20
478.0396481668176
 30
0.0
  0
VERTEX
  5
467
330
452
100
AcDbEntity
  8
Spigoli visibili(ISO)
100
AcDbVertex
100
AcDb2dVertex
 10
628.7315331639473
 20
477.9458814421253
 30
0.0
  0
VERTEX
  5
468
330
452
100
AcDbEntity
  8
Spigoli visibili(ISO)
100
AcDbVertex
100
AcDb2dVertex
 10
629.0232425554902
 20
477.8361220967931
 30
0.0
  0
VERTEX
  5
469
330
452
100
AcDbEntity
  8
Spigoli visibili(ISO)
100
AcDbVertex
100
AcDb2dVertex
 10
629.3220860089105
 20
477.7096715182685
 30
0.0
  0
VERTEX
  5
46A
330
452
100
AcDbEntity
  8
Spigoli visibili(ISO)
100
AcDbVertex
100
AcDb2dVertex
 10
629.6292493522535
 20
477.5656594141904
 30
0.0
  0
VERTEX
  5
46B
330
452
100
AcDbEntity
  8
Spigoli visibili(ISO)
100
AcDbVertex
100
AcDb2dVertex
 10
629.9458931949073
 20
477.4031215626264
 30
0.0
  0
VERTEX
  5
46C
330
452
100
AcDbEntity
  8
Spigoli visibili(ISO)
100
AcDbVertex
100
AcDb2dVertex
 10
630.2734138273906
 20
477.2208968431796
 30
0.0
  0
SEQEND
  5
455
330
452
100
AcDbEntity
  8
Spigoli visibili(ISO)
  0
POLYLINE
  5
46D
330
6C
100
AcDbEntity
  8
Spigoli visibili(ISO)
100
AcDb2dPolyline
 66
     1
 10
0.0
 20
0.0
 30
0.0
 70
   128
  0
VERTEX
  5
46E
330
46D
100
AcDbEntity
  8
Spigoli visibili(ISO)
100
AcDbVertex
100
AcDb2dVertex
 10
630.2734109951691
 20
471.3686360412298
 30
0.0
  0
VERTEX
  5
46F
330
46D
100
AcDbEntity
  8
Spigoli visibili(ISO)
100
AcDbVertex
100
AcDb2dVertex
 10
629.9459039362854
 20
471.1864088303877
 30
0.0
  0
VERTEX
  5
471
330
46D
100
AcDbEntity
  8
Spigoli visibili(ISO)
100
AcDbVertex
100
AcDb2dVertex
 10
629.6292334902782
 20
471.0238716468932
 30
0.0
  0
VERTEX
  5
472
330
46D
100
AcDbEntity
  8
Spigoli visibili(ISO)
100
AcDbVertex
100
AcDb2dVertex
 10
629.3221011149216
 20
470.8798664966821
 30
0.0
  0
VERTEX
  5
473
330
46D
100
AcDbEntity
  8
Spigoli visibili(ISO)
100
AcDbVertex
100
AcDb2dVertex
 10
629.0232384349093
 20
470.7534054485705
 30
0.0
  0
VERTEX
  5
474
330
46D
100
AcDbEntity
  8
Spigoli visibili(ISO)
100
AcDbVertex
100
AcDb2dVertex
 10
628.7315208232854
 20
470.6436536951956
 30
0.0
  0
VERTEX
  5
475
330
46D
100
AcDbEntity
  8
Spigoli visibili(ISO)
100
AcDbVertex
100
AcDb2dVertex
 10
628.4459072087983
 20
470.5498856808957
 30
0.0
  0
VERTEX
  5
476
330
46D
100
AcDbEntity
  8
Spigoli visibili(ISO)
100
AcDbVertex
100
AcDb2dVertex
 10
628.1654222796387
 20
470.4715053721027
 30
0.0
  0
VERTEX
  5
477
330
46D
100
AcDbEntity
  8
Spigoli visibili(ISO)
100
AcDbVertex
100
AcDb2dVertex
 10
627.8890975278597
 20
470.408021418549
 30
0.0
  0
VERTEX
  5
478
330
46D
100
AcDbEntity
  8
Spigoli visibili(ISO)
100
AcDbVertex
100
AcDb2dVertex
 10
627.6160854493402
 20
470.3590397308722
 30
0.0
  0
VERTEX
  5
479
330
46D
100
AcDbEntity
  8
Spigoli visibili(ISO)
100
AcDbVertex
100
AcDb2dVertex
 10
627.3455256919602
 20
470.3242626234121
 30
0.0
  0
VERTEX
  5
47A
330
46D
100
AcDbEntity
  8
Spigoli visibili(ISO)
100
AcDbVertex
100
AcDb2dVertex
 10
627.0765634703967
 20
470.3034780604822
 30
0.0
  0
VERTEX
  5
47B
330
46D
100
AcDbEntity
  8
Spigoli visibili(ISO)
100
AcDbVertex
100
AcDb2dVertex
 10
626.808407284637
 20
470.2965654618345
 30
0.0
  0
VERTEX
  5
47C
330
46D
100
AcDbEntity
  8
Spigoli visibili(ISO)
100
AcDbVertex
100
AcDb2dVertex
 10
626.5402509310718
 20
470.3034721009325
 30
0.0
  0
VERTEX
  5
47D
330
46D
100
AcDbEntity
  8
Spigoli visibili(ISO)
100
AcDbVertex
100
AcDb2dVertex
 10
626.2712956284866
 20
470.3242594512039
 30
0.0
  0
VERTEX
  5
47E
330
46D
100
AcDbEntity
  8
Spigoli visibili(ISO)
100
AcDbVertex
100
AcDb2dVertex
 10
626.000726655004
 20
470.3590378064604
 30
0.0
  0
VERTEX
  5
47F
330
46D
100
AcDbEntity
  8
Spigoli visibili(ISO)
100
AcDbVertex
100
AcDb2dVertex
 10
625.7277164407483
 20
470.4080138642161
 30
0.0
  0
VERTEX
  5
480
330
46D
100
AcDbEntity
  8
Spigoli visibili(ISO)
100
AcDbVertex
100
AcDb2dVertex
 10
625.4514061530511
 20
470.4715014794167
 30
0.0
  0
VERTEX
  5
481
330
46D
100
AcDbEntity
  8
Spigoli visibili(ISO)
100
AcDbVertex
100
AcDb2dVertex
 10
625.1709032223199
 20
470.5498835977858
 30
0.0
  0
VERTEX
  5
482
330
46D
100
AcDbEntity
  8
Spigoli visibili(ISO)
100
AcDbVertex
100
AcDb2dVertex
 10
624.8853028494964
 20
470.6436490854123
 30
0.0
  0
VERTEX
  5
483
330
46D
100
AcDbEntity
  8
Spigoli visibili(ISO)
100
AcDbVertex
100
AcDb2dVertex
 10
624.5935934579535
 20
470.7534084307445
 30
0.0
  0
VERTEX
  5
484
330
46D
100
AcDbEntity
  8
Spigoli visibili(ISO)
100
AcDbVertex
100
AcDb2dVertex
 10
624.2947309712059
 20
470.8798602463348
 30
0.0
  0
VERTEX
  5
485
330
46D
100
AcDbEntity
  8
Spigoli visibili(ISO)
100
AcDbVertex
100
AcDb2dVertex
 10
623.9875866611903
 20
471.0238711133472
 30
0.0
  0
VERTEX
  5
486
330
46D
100
AcDbEntity
  8
Spigoli visibili(ISO)
100
AcDbVertex
100
AcDb2dVertex
 10
623.6709237852092
 20
471.1864102019768
 30
0.0
  0
VERTEX
  5
487
330
46D
100
AcDbEntity
  8
Spigoli visibili(ISO)
100
AcDbVertex
100
AcDb2dVertex
 10
623.3434031527258
 20
471.3686349214237
 30
0.0
  0
SEQEND
  5
470
330
46D
100
AcDbEntity
  8
Spigoli visibili(ISO)
  0
LINE
  5
488
330
6C
100
AcDbEntity
  8
Spigoli visibili(ISO)
100
AcDbLine
 10
630.2734100349583
 20
477.2208940636042
 30
0.0
 11
630.2734100349583
 21
471.3686370649898
 31
0.0
  0
LINE
  5
489
330
6C
100
AcDbEntity
  8
Spigoli visibili(ISO)
100
AcDbLine
 10
628.4134100349583
 20
478.2947655642971
 30
0.0
 11
604.4134100349585
 21
478.2947655642971
 31
0.0
  0
LINE
  5
48A
330
6C
100
AcDbEntity
  8
Spigoli visibili(ISO)
100
AcDbLine
 10
604.4134100349583
 20
470.2947655642971
 30
0.0
 11
602.5534100349583
 21
471.3686370649898
 31
0.0
  0
LINE
  5
48B
330
6C
100
AcDbEntity
  8
Spigoli visibili(ISO)
100
AcDbLine
 10
628.4134100349583
 20
470.2947655642971
 30
0.0
 11
630.2734100349583
 21
471.3686370649898
 31
0.0
  0
LINE
  5
48C
330
6C
100
AcDbEntity
  8
Spigoli visibili(ISO)
100
AcDbLine
 10
628.4134100349582
 20
478.2947655642971
 30
0.0
 11
630.2734100349583
 21
477.2208940636042
 31
0.0
  0
LINE
  5
48D
330
6C
100
AcDbEntity
  8
Spigoli visibili(ISO)
100
AcDbLine
 10
604.4134100349583
 20
478.294765564297
 30
0.0
 11
602.5534100349582
 21
477.2208940636042
 31
0.0
  0
LINE
  5
48E
330
6C
100
AcDbEntity
  8
Spigoli visibili(ISO)
100
AcDbLine
 10
521.2740348768951
 20
465.2208940636045
 30
0.0
 11
521.2740348768951
 21
459.3686370649899
 31
0.0
  0
POLYLINE
  5
48F
330
6C
100
AcDbEntity
  8
Spigoli visibili(ISO)
100
AcDb2dPolyline
 66
     1
 10
0.0
 20
0.0
 30
0.0
 70
   128
  0
VERTEX
  5
490
330
48F
100
AcDbEntity
  8
Spigoli visibili(ISO)
100
AcDbVertex
100
AcDb2dVertex
 10
521.2740263328959
 20
465.2208911268897
 30
0.0
  0
VERTEX
  5
491
330
48F
100
AcDbEntity
  8
Spigoli visibili(ISO)
100
AcDbVertex
100
AcDb2dVertex
 10
521.6015524251067
 20
465.4031171006659
 30
0.0
  0
VERTEX
  5
493
330
48F
100
AcDbEntity
  8
Spigoli visibili(ISO)
100
AcDbVertex
100
AcDb2dVertex
 10
521.9182044563191
 20
465.5656650378899
 30
0.0
  0
VERTEX
  5
494
330
48F
100
AcDbEntity
  8
Spigoli visibili(ISO)
100
AcDbVertex
100
AcDb2dVertex
 10
522.2253558650026
 20
465.7096689510351
 30
0.0
  0
VERTEX
  5
495
330
48F
100
AcDbEntity
  8
Spigoli visibili(ISO)
100
AcDbVertex
100
AcDb2dVertex
 10
522.5242179264817
 20
465.8361204824831
 30
0.0
  0
VERTEX
  5
496
330
48F
100
AcDbEntity
  8
Spigoli visibili(ISO)
100
AcDbVertex
100
AcDb2dVertex
 10
522.8159165047781
 20
465.9458734729237
 30
0.0
  0
VERTEX
  5
497
330
48F
100
AcDbEntity
  8
Spigoli visibili(ISO)
100
AcDbVertex
100
AcDb2dVertex
 10
523.1015301192648
 20
466.0396414872236
 30
0.0
  0
VERTEX
  5
498
330
48F
100
AcDbEntity
  8
Spigoli visibili(ISO)
100
AcDbVertex
100
AcDb2dVertex
 10
523.3820347002843
 20
466.1180300756144
 30
0.0
  0
VERTEX
  5
499
330
48F
100
AcDbEntity
  8
Spigoli visibili(ISO)
100
AcDbVertex
100
AcDb2dVertex
 10
523.6583404187356
 20
466.1815152662341
 30
0.0
  0
VERTEX
  5
49A
330
48F
100
AcDbEntity
  8
Spigoli visibili(ISO)
100
AcDbVertex
100
AcDb2dVertex
 10
523.931352497255
 20
466.230496953911
 30
0.0
  0
VERTEX
  5
49B
330
48F
100
AcDbEntity
  8
Spigoli visibili(ISO)
100
AcDbVertex
100
AcDb2dVertex
 10
524.2019312879619
 20
466.2652728243051
 30
0.0
  0
VERTEX
  5
49C
330
48F
100
AcDbEntity
  8
Spigoli visibili(ISO)
100
AcDbVertex
100
AcDb2dVertex
 10
524.4708744761978
 20
466.2860586243008
 30
0.0
  0
VERTEX
  5
49D
330
48F
100
AcDbEntity
  8
Spigoli visibili(ISO)
100
AcDbVertex
100
AcDb2dVertex
 10
524.7390306619572
 20
466.2929712229487
 30
0.0
  0
VERTEX
  5
49E
330
48F
100
AcDbEntity
  8
Spigoli visibili(ISO)
100
AcDbVertex
100
AcDb2dVertex
 10
525.0071863969892
 20
466.286055067187
 30
0.0
  0
VERTEX
  5
49F
330
48F
100
AcDbEntity
  8
Spigoli visibili(ISO)
100
AcDbVertex
100
AcDb2dVertex
 10
525.2761416995743
 20
466.2652677169154
 30
0.0
  0
VERTEX
  5
4A0
330
48F
100
AcDbEntity
  8
Spigoli visibili(ISO)
100
AcDbVertex
100
AcDb2dVertex
 10
525.5467112915893
 20
466.2304988783226
 30
0.0
  0
VERTEX
  5
4A1
330
48F
100
AcDbEntity
  8
Spigoli visibili(ISO)
100
AcDbVertex
100
AcDb2dVertex
 10
525.8197399206393
 20
466.1815120668376
 30
0.0
  0
VERTEX
  5
4A2
330
48F
100
AcDbEntity
  8
Spigoli visibili(ISO)
100
AcDbVertex
100
AcDb2dVertex
 10
526.0960502083362
 20
466.1180244516368
 30
0.0
  0
VERTEX
  5
4A3
330
48F
100
AcDbEntity
  8
Spigoli visibili(ISO)
100
AcDbVertex
100
AcDb2dVertex
 10
526.3765341057399
 20
466.0396435703336
 30
0.0
  0
VERTEX
  5
4A4
330
48F
100
AcDbEntity
  8
Spigoli visibili(ISO)
100
AcDbVertex
100
AcDb2dVertex
 10
526.6621535118904
 20
465.9458768456413
 30
0.0
  0
VERTEX
  5
4A5
330
48F
100
AcDbEntity
  8
Spigoli visibili(ISO)
100
AcDbVertex
100
AcDb2dVertex
 10
526.9538635219658
 20
465.8361270169728
 30
0.0
  0
VERTEX
  5
4A6
330
48F
100
AcDbEntity
  8
Spigoli visibili(ISO)
100
AcDbVertex
100
AcDb2dVertex
 10
527.2527253901803
 20
465.7096656847188
 30
0.0
  0
VERTEX
  5
4A7
330
48F
100
AcDbEntity
  8
Spigoli visibili(ISO)
100
AcDbVertex
100
AcDb2dVertex
 10
527.5598703187284
 20
465.5656643343701
 30
0.0
  0
VERTEX
  5
4A8
330
48F
100
AcDbEntity
  8
Spigoli visibili(ISO)
100
AcDbVertex
100
AcDb2dVertex
 10
527.8765141613819
 20
465.4031264828062
 30
0.0
  0
VERTEX
  5
4A9
330
48F
100
AcDbEntity
  8
Spigoli visibili(ISO)
100
AcDbVertex
100
AcDb2dVertex
 10
528.204034175332
 20
465.2208922466957
 30
0.0
  0
SEQEND
  5
492
330
48F
100
AcDbEntity
  8
Spigoli visibili(ISO)
  0
POLYLINE
  5
4AA
330
6C
100
AcDbEntity
  8
Spigoli visibili(ISO)
100
AcDb2dPolyline
 66
     1
 10
0.0
 20
0.0
 30
0.0
 70
   128
  0
VERTEX
  5
4AB
330
4AA
100
AcDbEntity
  8
Spigoli visibili(ISO)
100
AcDbVertex
100
AcDb2dVertex
 10
528.2040319616434
 20
459.3686409614094
 30
0.0
  0
VERTEX
  5
4AC
330
4AA
100
AcDbEntity
  8
Spigoli visibili(ISO)
100
AcDbVertex
100
AcDb2dVertex
 10
527.87652490276
 20
459.1864137505674
 30
0.0
  0
VERTEX
  5
4AE
330
4AA
100
AcDbEntity
  8
Spigoli visibili(ISO)
100
AcDbVertex
100
AcDb2dVertex
 10
527.5598728715476
 20
459.0238658133436
 30
0.0
  0
VERTEX
  5
4AF
330
4AA
100
AcDbEntity
  8
Spigoli visibili(ISO)
100
AcDbVertex
100
AcDb2dVertex
 10
527.2527214628642
 20
458.8798619001983
 30
0.0
  0
VERTEX
  5
4B0
330
4AA
100
AcDbEntity
  8
Spigoli visibili(ISO)
100
AcDbVertex
100
AcDb2dVertex
 10
526.953859401385
 20
458.7534103687502
 30
0.0
  0
VERTEX
  5
4B1
330
4AA
100
AcDbEntity
  8
Spigoli visibili(ISO)
100
AcDbVertex
100
AcDb2dVertex
 10
526.6621417897614
 20
458.6436586153753
 30
0.0
  0
VERTEX
  5
4B2
330
4AA
100
AcDbEntity
  8
Spigoli visibili(ISO)
100
AcDbVertex
100
AcDb2dVertex
 10
526.3765465900688
 20
458.549879847346
 30
0.0
  0
VERTEX
  5
4B3
330
4AA
100
AcDbEntity
  8
Spigoli visibili(ISO)
100
AcDbVertex
100
AcDb2dVertex
 10
526.0960426275824
 20
458.4715007756188
 30
0.0
  0
VERTEX
  5
4B4
330
4AA
100
AcDbEntity
  8
Spigoli visibili(ISO)
100
AcDbVertex
100
AcDb2dVertex
 10
525.819736909131
 20
458.4080155849993
 30
0.0
  0
VERTEX
  5
4B5
330
4AA
100
AcDbEntity
  8
Spigoli visibili(ISO)
100
AcDbVertex
100
AcDb2dVertex
 10
525.5467057972843
 20
458.3590351343882
 30
0.0
  0
VERTEX
  5
4B6
330
4AA
100
AcDbEntity
  8
Spigoli visibili(ISO)
100
AcDbVertex
100
AcDb2dVertex
 10
525.2761460399047
 20
458.3242580269282
 30
0.0
  0
VERTEX
  5
4B7
330
4AA
100
AcDbEntity
  8
Spigoli visibili(ISO)
100
AcDbVertex
100
AcDb2dVertex
 10
525.0071838183414
 20
458.3034734639983
 30
0.0
  0
VERTEX
  5
4B8
330
4AA
100
AcDbEntity
  8
Spigoli visibili(ISO)
100
AcDbVertex
100
AcDb2dVertex
 10
524.7390276325821
 20
458.2965608653505
 30
0.0
  0
VERTEX
  5
4B9
330
4AA
100
AcDbEntity
  8
Spigoli visibili(ISO)
100
AcDbVertex
100
AcDb2dVertex
 10
524.4708909308774
 20
458.3034757840464
 30
0.0
  0
VERTEX
  5
4BA
330
4AA
100
AcDbEntity
  8
Spigoli visibili(ISO)
100
AcDbVertex
100
AcDb2dVertex
 10
524.2019356282924
 20
458.3242631343178
 30
0.0
  0
VERTEX
  5
4BB
330
4AA
100
AcDbEntity
  8
Spigoli visibili(ISO)
100
AcDbVertex
100
AcDb2dVertex
 10
523.9313470029498
 20
458.3590332099765
 30
0.0
  0
VERTEX
  5
4BC
330
4AA
100
AcDbEntity
  8
Spigoli visibili(ISO)
100
AcDbVertex
100
AcDb2dVertex
 10
523.6583374072274
 20
458.4080187843958
 30
0.0
  0
VERTEX
  5
4BD
330
4AA
100
AcDbEntity
  8
Spigoli visibili(ISO)
100
AcDbVertex
100
AcDb2dVertex
 10
523.3820271195305
 20
458.4715063995965
 30
0.0
  0
VERTEX
  5
4BE
330
4AA
100
AcDbEntity
  8
Spigoli visibili(ISO)
100
AcDbVertex
100
AcDb2dVertex
 10
523.1015241887995
 20
458.5498885179655
 30
0.0
  0
VERTEX
  5
4BF
330
4AA
100
AcDbEntity
  8
Spigoli visibili(ISO)
100
AcDbVertex
100
AcDb2dVertex
 10
522.8159238159763
 20
458.643654005592
 30
0.0
  0
VERTEX
  5
4C0
330
4AA
100
AcDbEntity
  8
Spigoli visibili(ISO)
100
AcDbVertex
100
AcDb2dVertex
 10
522.5242138059009
 20
458.7534038342605
 30
0.0
  0
VERTEX
  5
4C1
330
4AA
100
AcDbEntity
  8
Spigoli visibili(ISO)
100
AcDbVertex
100
AcDb2dVertex
 10
522.2253519376864
 20
458.8798651665144
 30
0.0
  0
VERTEX
  5
4C2
330
4AA
100
AcDbEntity
  8
Spigoli visibili(ISO)
100
AcDbVertex
100
AcDb2dVertex
 10
521.9182070091382
 20
459.0238665168633
 30
0.0
  0
VERTEX
  5
4C3
330
4AA
100
AcDbEntity
  8
Spigoli visibili(ISO)
100
AcDbVertex
100
AcDb2dVertex
 10
521.6015441331574
 20
459.1864056054929
 30
0.0
  0
VERTEX
  5
4C4
330
4AA
100
AcDbEntity
  8
Spigoli visibili(ISO)
100
AcDbVertex
100
AcDb2dVertex
 10
521.2740431525346
 20
459.3686386045376
 30
0.0
  0
SEQEND
  5
4AD
330
4AA
100
AcDbEntity
  8
Spigoli visibili(ISO)
  0
LINE
  5
4C5
330
6C
100
AcDbEntity
  8
Spigoli visibili(ISO)
100
AcDbLine
 10
528.2040348768914
 20
459.3686370649899
 30
0.0
 11
528.2040348768914
 21
465.2208940636045
 31
0.0
  0
POLYLINE
  5
4C6
330
6C
100
AcDbEntity
  8
Spigoli visibili(ISO)
100
AcDb2dPolyline
 66
     1
 10
0.0
 20
0.0
 30
0.0
 70
   128
  0
VERTEX
  5
4C7
330
4C6
100
AcDbEntity
  8
Spigoli visibili(ISO)
100
AcDbVertex
100
AcDb2dVertex
 10
528.204034175332
 20
465.2208922466957
 30
0.0
  0
VERTEX
  5
4C8
330
4C6
100
AcDbEntity
  8
Spigoli visibili(ISO)
100
AcDbVertex
100
AcDb2dVertex
 10
528.8590553891654
 20
465.4031254615674
 30
0.0
  0
VERTEX
  5
4CA
330
4C6
100
AcDbEntity
  8
Spigoli visibili(ISO)
100
AcDbVertex
100
AcDb2dVertex
 10
529.4923826702363
 20
465.5656575526953
 30
0.0
  0
VERTEX
  5
4CB
330
4C6
100
AcDbEntity
  8
Spigoli visibili(ISO)
100
AcDbVertex
100
AcDb2dVertex
 10
530.1066727308723
 20
465.7096633657716
 30
0.0
  0
VERTEX
  5
4CC
330
4C6
100
AcDbEntity
  8
Spigoli visibili(ISO)
100
AcDbVertex
100
AcDb2dVertex
 10
530.7043783424042
 20
465.8361207505461
 30
0.0
  0
VERTEX
  5
4CD
330
4C6
100
AcDbEntity
  8
Spigoli visibili(ISO)
100
AcDbVertex
100
AcDb2dVertex
 10
531.2878097648775
 20
465.9458734662742
 30
0.0
  0
VERTEX
  5
4CE
330
4C6
100
AcDbEntity
  8
Spigoli visibili(ISO)
100
AcDbVertex
100
AcDb2dVertex
 10
531.8590211656226
 20
466.0396481207754
 30
0.0
  0
VERTEX
  5
4CF
330
4C6
100
AcDbEntity
  8
Spigoli visibili(ISO)
100
AcDbVertex
100
AcDb2dVertex
 10
532.4200193673209
 20
466.1180310460464
 30
0.0
  0
VERTEX
  5
4D0
330
4C6
100
AcDbEntity
  8
Spigoli visibili(ISO)
100
AcDbVertex
100
AcDb2dVertex
 10
532.9726521221739
 20
466.1815137873096
 30
0.0
  0
VERTEX
  5
4D1
330
4C6
100
AcDbEntity
  8
Spigoli visibili(ISO)
100
AcDbVertex
100
AcDb2dVertex
 10
533.5186658304174
 20
466.23049890848
 30
0.0
  0
VERTEX
  5
4D2
330
4C6
100
AcDbEntity
  8
Spigoli visibili(ISO)
100
AcDbVertex
100
AcDb2dVertex
 10
534.0598185032193
 20
466.265273536443
 30
0.0
  0
VERTEX
  5
4D3
330
4C6
100
AcDbEntity
  8
Spigoli visibili(ISO)
100
AcDbVertex
100
AcDb2dVertex
 10
534.5977299701933
 20
466.2860573242351
 30
0.0
  0
VERTEX
  5
4D4
330
4C6
100
AcDbEntity
  8
Spigoli visibili(ISO)
100
AcDbVertex
100
AcDb2dVertex
 10
535.1340329089514
 20
466.2929735211906
 30
0.0
  0
VERTEX
  5
4D5
330
4C6
100
AcDbEntity
  8
Spigoli visibili(ISO)
100
AcDbVertex
100
AcDb2dVertex
 10
535.6703347784493
 20
466.2860514470731
 30
0.0
  0
VERTEX
  5
4D6
330
4C6
100
AcDbEntity
  8
Spigoli visibili(ISO)
100
AcDbVertex
100
AcDb2dVertex
 10
536.2082589783051
 20
466.2652716012616
 30
0.0
  0
VERTEX
  5
4D7
330
4C6
100
AcDbEntity
  8
Spigoli visibili(ISO)
100
AcDbVertex
100
AcDb2dVertex
 10
536.7494018338824
 20
466.230492003574
 30
0.0
  0
VERTEX
  5
4D8
330
4C6
100
AcDbEntity
  8
Spigoli visibili(ISO)
100
AcDbVertex
100
AcDb2dVertex
 10
537.2954320926563
 20
466.1815086255825
 30
0.0
  0
VERTEX
  5
4D9
330
4C6
100
AcDbEntity
  8
Spigoli visibili(ISO)
100
AcDbVertex
100
AcDb2dVertex
 10
537.8480510019605
 20
466.1180293147548
 30
0.0
  0
VERTEX
  5
4DA
330
4C6
100
AcDbEntity
  8
Spigoli visibili(ISO)
100
AcDbVertex
100
AcDb2dVertex
 10
538.4090475533705
 20
466.039641533266
 30
0.0
  0
VERTEX
  5
4DB
330
4C6
100
AcDbEntity
  8
Spigoli visibili(ISO)
100
AcDbVertex
100
AcDb2dVertex
 10
538.980264745779
 20
465.945881448775
 30
0.0
  0
VERTEX
  5
4DC
330
4C6
100
AcDbEntity
  8
Spigoli visibili(ISO)
100
AcDbVertex
100
AcDb2dVertex
 10
539.5636879481712
 20
465.836123065796
 30
0.0
  0
VERTEX
  5
4DD
330
4C6
100
AcDbEntity
  8
Spigoli visibili(ISO)
100
AcDbVertex
100
AcDb2dVertex
 10
540.1614123997658
 20
465.7096663498028
 30
0.0
  0
VERTEX
  5
4DE
330
4C6
100
AcDbEntity
  8
Spigoli visibili(ISO)
100
AcDbVertex
100
AcDb2dVertex
 10
540.7756959802664
 20
465.5656668993851
 30
0.0
  0
VERTEX
  5
4DF
330
4C6
100
AcDbEntity
  8
Spigoli visibili(ISO)
100
AcDbVertex
100
AcDb2dVertex
 10
541.4090156913114
 20
465.4031227183889
 30
0.0
  0
VERTEX
  5
4E0
330
4C6
100
AcDbEntity
  8
Spigoli visibili(ISO)
100
AcDbVertex
100
AcDb2dVertex
 10
542.0640308268842
 20
465.2208957233738
 30
0.0
  0
SEQEND
  5
4C9
330
4C6
100
AcDbEntity
  8
Spigoli visibili(ISO)
  0
POLYLINE
  5
4E1
330
6C
100
AcDbEntity
  8
Spigoli visibili(ISO)
100
AcDb2dPolyline
 66
     1
 10
0.0
 20
0.0
 30
0.0
 70
   128
  0
VERTEX
  5
4E2
330
4E1
100
AcDbEntity
  8
Spigoli visibili(ISO)
100
AcDbVertex
100
AcDb2dVertex
 10
542.0640279946626
 20
459.3686349214238
 30
0.0
  0
VERTEX
  5
4E3
330
4E1
100
AcDbEntity
  8
Spigoli visibili(ISO)
100
AcDbVertex
100
AcDb2dVertex
 10
541.4090073993621
 20
459.1864112232158
 30
0.0
  0
VERTEX
  5
4E5
330
4E1
100
AcDbEntity
  8
Spigoli visibili(ISO)
100
AcDbVertex
100
AcDb2dVertex
 10
540.7756985330856
 20
459.0238683783585
 30
0.0
  0
VERTEX
  5
4E6
330
4E1
100
AcDbEntity
  8
Spigoli visibili(ISO)
100
AcDbVertex
100
AcDb2dVertex
 10
540.1614084724496
 20
458.8798625652822
 30
0.0
  0
VERTEX
  5
4E7
330
4E1
100
AcDbEntity
  8
Spigoli visibili(ISO)
100
AcDbVertex
100
AcDb2dVertex
 10
539.5636838275904
 20
458.7534064175735
 30
0.0
  0
VERTEX
  5
4E8
330
4E1
100
AcDbEntity
  8
Spigoli visibili(ISO)
100
AcDbVertex
100
AcDb2dVertex
 10
538.9802714384444
 20
458.6436524647797
 30
0.0
  0
VERTEX
  5
4E9
330
4E1
100
AcDbEntity
  8
Spigoli visibili(ISO)
100
AcDbVertex
100
AcDb2dVertex
 10
538.4090416229049
 20
458.5498885640078
 30
0.0
  0
VERTEX
  5
4EA
330
4E1
100
AcDbEntity
  8
Spigoli visibili(ISO)
100
AcDbVertex
100
AcDb2dVertex
 10
537.8480434212066
 20
458.4715056387368
 30
0.0
  0
VERTEX
  5
4EB
330
4E1
100
AcDbEntity
  8
Spigoli visibili(ISO)
100
AcDbVertex
100
AcDb2dVertex
 10
537.2954296996808
 20
458.4080216604078
 30
0.0
  0
VERTEX
  5
4EC
330
4E1
100
AcDbEntity
  8
Spigoli visibili(ISO)
100
AcDbVertex
100
AcDb2dVertex
 10
536.7493969581102
 20
458.3590377763032
 30
0.0
  0
VERTEX
  5
4ED
330
4E1
100
AcDbEntity
  8
Spigoli visibili(ISO)
100
AcDbVertex
100
AcDb2dVertex
 10
536.2082442853083
 20
458.3242631483402
 30
0.0
  0
VERTEX
  5
4EE
330
4E1
100
AcDbEntity
  8
Spigoli visibili(ISO)
100
AcDbVertex
100
AcDb2dVertex
 10
535.6703328183344
 20
458.3034793605481
 30
0.0
  0
VERTEX
  5
4EF
330
4E1
100
AcDbEntity
  8
Spigoli visibili(ISO)
100
AcDbVertex
100
AcDb2dVertex
 10
535.1340298795762
 20
458.2965631635926
 30
0.0
  0
VERTEX
  5
4F0
330
4E1
100
AcDbEntity
  8
Spigoli visibili(ISO)
100
AcDbVertex
100
AcDb2dVertex
 10
534.5977273915455
 20
458.3034757210465
 30
0.0
  0
VERTEX
  5
4F1
330
4E1
100
AcDbEntity
  8
Spigoli visibili(ISO)
100
AcDbVertex
100
AcDb2dVertex
 10
534.0598222250169
 20
458.3242543297921
 30
0.0
  0
VERTEX
  5
4F2
330
4E1
100
AcDbEntity
  8
Spigoli visibili(ISO)
100
AcDbVertex
100
AcDb2dVertex
 10
533.5186793694396
 20
458.3590339274798
 30
0.0
  0
VERTEX
  5
4F3
330
4E1
100
AcDbEntity
  8
Spigoli visibili(ISO)
100
AcDbVertex
100
AcDb2dVertex
 10
532.9726491106656
 20
458.4080173054713
 30
0.0
  0
VERTEX
  5
4F4
330
4E1
100
AcDbEntity
  8
Spigoli visibili(ISO)
100
AcDbVertex
100
AcDb2dVertex
 10
532.4200117865671
 20
458.4715073700284
 30
0.0
  0
VERTEX
  5
4F5
330
4E1
100
AcDbEntity
  8
Spigoli visibili(ISO)
100
AcDbVertex
100
AcDb2dVertex
 10
531.8590336499515
 20
458.5498843977878
 30
0.0
  0
VERTEX
  5
4F6
330
4E1
100
AcDbEntity
  8
Spigoli visibili(ISO)
100
AcDbVertex
100
AcDb2dVertex
 10
531.2877980427486
 20
458.6436552360082
 30
0.0
  0
VERTEX
  5
4F7
330
4E1
100
AcDbEntity
  8
Spigoli visibili(ISO)
100
AcDbVertex
100
AcDb2dVertex
 10
530.7043938736836
 20
458.7534123819214
 30
0.0
  0
VERTEX
  5
4F8
330
4E1
100
AcDbEntity
  8
Spigoli visibili(ISO)
100
AcDbVertex
100
AcDb2dVertex
 10
530.1066694220891
 20
458.8798690979147
 30
0.0
  0
VERTEX
  5
4F9
330
4E1
100
AcDbEntity
  8
Spigoli visibili(ISO)
100
AcDbVertex
100
AcDb2dVertex
 10
529.4923668082612
 20
459.0238697853981
 30
0.0
  0
VERTEX
  5
4FA
330
4E1
100
AcDbEntity
  8
Spigoli visibili(ISO)
100
AcDbVertex
100
AcDb2dVertex
 10
528.8590661305436
 20
459.1864127293286
 30
0.0
  0
VERTEX
  5
4FB
330
4E1
100
AcDbEntity
  8
Spigoli visibili(ISO)
100
AcDbVertex
100
AcDb2dVertex
 10
528.2040319616434
 20
459.3686409614094
 30
0.0
  0
SEQEND
  5
4E4
330
4E1
100
AcDbEntity
  8
Spigoli visibili(ISO)
  0
LINE
  5
4FC
330
6C
100
AcDbEntity
  8
Spigoli visibili(ISO)
100
AcDbLine
 10
542.0640348768917
 20
465.2208940636046
 30
0.0
 11
542.0640348768917
 21
459.36863706499
 31
0.0
  0
POLYLINE
  5
4FD
330
6C
100
AcDbEntity
  8
Spigoli visibili(ISO)
100
AcDb2dPolyline
 66
     1
 10
0.0
 20
0.0
 30
0.0
 70
   128
  0
VERTEX
  5
4FE
330
4FD
100
AcDbEntity
  8
Spigoli visibili(ISO)
100
AcDbVertex
100
AcDb2dVertex
 10
542.0640308268842
 20
465.2208957233738
 30
0.0
  0
VERTEX
  5
4FF
330
4FD
100
AcDbEntity
  8
Spigoli visibili(ISO)
100
AcDbVertex
100
AcDb2dVertex
 10
542.3915378857678
 20
465.4031229342158
 30
0.0
  0
VERTEX
  5
501
330
4FD
100
AcDbEntity
  8
Spigoli visibili(ISO)
100
AcDbVertex
100
AcDb2dVertex
 10
542.708208331775
 20
465.5656601177103
 30
0.0
  0
VERTEX
  5
502
330
4FD
100
AcDbEntity
  8
Spigoli visibili(ISO)
100
AcDbVertex
100
AcDb2dVertex
 10
543.0153407071315
 20
465.7096652679213
 30
0.0
  0
VERTEX
  5
503
330
4FD
100
AcDbEntity
  8
Spigoli visibili(ISO)
100
AcDbVertex
100
AcDb2dVertex
 10
543.3142033871438
 20
465.836126316033
 30
0.0
  0
VERTEX
  5
504
330
4FD
100
AcDbEntity
  8
Spigoli visibili(ISO)
100
AcDbVertex
100
AcDb2dVertex
 10
543.6059209987678
 20
465.9458780694079
 30
0.0
  0
VERTEX
  5
505
330
4FD
100
AcDbEntity
  8
Spigoli visibili(ISO)
100
AcDbVertex
100
AcDb2dVertex
 10
543.8915346132549
 20
466.0396460837077
 30
0.0
  0
VERTEX
  5
506
330
4FD
100
AcDbEntity
  8
Spigoli visibili(ISO)
100
AcDbVertex
100
AcDb2dVertex
 10
544.1720195424145
 20
466.1180263925007
 30
0.0
  0
VERTEX
  5
507
330
4FD
100
AcDbEntity
  8
Spigoli visibili(ISO)
100
AcDbVertex
100
AcDb2dVertex
 10
544.4483442941934
 20
466.1815103460544
 30
0.0
  0
VERTEX
  5
508
330
4FD
100
AcDbEntity
  8
Spigoli visibili(ISO)
100
AcDbVertex
100
AcDb2dVertex
 10
544.7213563727131
 20
466.2304920337314
 30
0.0
  0
VERTEX
  5
509
330
4FD
100
AcDbEntity
  8
Spigoli visibili(ISO)
100
AcDbVertex
100
AcDb2dVertex
 10
544.9919351634203
 20
466.2652679041255
 30
0.0
  0
VERTEX
  5
50A
330
4FD
100
AcDbEntity
  8
Spigoli visibili(ISO)
100
AcDbVertex
100
AcDb2dVertex
 10
545.2608783516565
 20
466.2860537041212
 30
0.0
  0
VERTEX
  5
50B
330
4FD
100
AcDbEntity
  8
Spigoli visibili(ISO)
100
AcDbVertex
100
AcDb2dVertex
 10
545.5290345374162
 20
466.292966302769
 30
0.0
  0
VERTEX
  5
50C
330
4FD
100
AcDbEntity
  8
Spigoli visibili(ISO)
100
AcDbVertex
100
AcDb2dVertex
 10
545.7971902724485
 20
466.2860501470073
 30
0.0
  0
VERTEX
  5
50D
330
4FD
100
AcDbEntity
  8
Spigoli visibili(ISO)
100
AcDbVertex
100
AcDb2dVertex
 10
546.0661461935666
 20
466.2652723133996
 30
0.0
  0
VERTEX
  5
50E
330
4FD
100
AcDbEntity
  8
Spigoli visibili(ISO)
100
AcDbVertex
100
AcDb2dVertex
 10
546.3367151670492
 20
466.2304939581431
 30
0.0
  0
VERTEX
  5
50F
330
4FD
100
AcDbEntity
  8
Spigoli visibili(ISO)
100
AcDbVertex
100
AcDb2dVertex
 10
546.6097247627721
 20
466.1815083837239
 30
0.0
  0
VERTEX
  5
510
330
4FD
100
AcDbEntity
  8
Spigoli visibili(ISO)
100
AcDbVertex
100
AcDb2dVertex
 10
546.8860356690021
 20
466.1180302851867
 30
0.0
  0
VERTEX
  5
511
330
4FD
100
AcDbEntity
  8
Spigoli visibili(ISO)
100
AcDbVertex
100
AcDb2dVertex
 10
547.1665385997333
 20
466.0396481668178
 30
0.0
  0
VERTEX
  5
512
330
4FD
100
AcDbEntity
  8
Spigoli visibili(ISO)
100
AcDbVertex
100
AcDb2dVertex
 10
547.4521580058841
 20
465.9458814421253
 30
0.0
  0
VERTEX
  5
513
330
4FD
100
AcDbEntity
  8
Spigoli visibili(ISO)
100
AcDbVertex
100
AcDb2dVertex
 10
547.7438673974269
 20
465.8361220967932
 30
0.0
  0
VERTEX
  5
514
330
4FD
100
AcDbEntity
  8
Spigoli visibili(ISO)
100
AcDbVertex
100
AcDb2dVertex
 10
548.0427108508473
 20
465.7096715182687
 30
0.0
  0
VERTEX
  5
515
330
4FD
100
AcDbEntity
  8
Spigoli visibili(ISO)
100
AcDbVertex
100
AcDb2dVertex
 10
548.3498741941901
 20
465.5656594141905
 30
0.0
  0
VERTEX
  5
516
330
4FD
100
AcDbEntity
  8
Spigoli visibili(ISO)
100
AcDbVertex
100
AcDb2dVertex
 10
548.666518036844
 20
465.4031215626265
 30
0.0
  0
VERTEX
  5
517
330
4FD
100
AcDbEntity
  8
Spigoli visibili(ISO)
100
AcDbVertex
100
AcDb2dVertex
 10
548.9940386693274
 20
465.2208968431799
 30
0.0
  0
SEQEND
  5
500
330
4FD
100
AcDbEntity
  8
Spigoli visibili(ISO)
  0
POLYLINE
  5
518
330
6C
100
AcDbEntity
  8
Spigoli visibili(ISO)
100
AcDb2dPolyline
 66
     1
 10
0.0
 20
0.0
 30
0.0
 70
   128
  0
VERTEX
  5
519
330
518
100
AcDbEntity
  8
Spigoli visibili(ISO)
100
AcDbVertex
100
AcDb2dVertex
 10
548.9940358371058
 20
459.3686360412299
 30
0.0
  0
VERTEX
  5
51A
330
518
100
AcDbEntity
  8
Spigoli visibili(ISO)
100
AcDbVertex
100
AcDb2dVertex
 10
548.666528778222
 20
459.1864088303878
 30
0.0
  0
VERTEX
  5
51C
330
518
100
AcDbEntity
  8
Spigoli visibili(ISO)
100
AcDbVertex
100
AcDb2dVertex
 10
548.3498583322149
 20
459.0238716468934
 30
0.0
  0
VERTEX
  5
51D
330
518
100
AcDbEntity
  8
Spigoli visibili(ISO)
100
AcDbVertex
100
AcDb2dVertex
 10
548.0427259568585
 20
458.8798664966823
 30
0.0
  0
VERTEX
  5
51E
330
518
100
AcDbEntity
  8
Spigoli visibili(ISO)
100
AcDbVertex
100
AcDb2dVertex
 10
547.743863276846
 20
458.7534054485707
 30
0.0
  0
VERTEX
  5
51F
330
518
100
AcDbEntity
  8
Spigoli visibili(ISO)
100
AcDbVertex
100
AcDb2dVertex
 10
547.4521456652222
 20
458.6436536951958
 30
0.0
  0
VERTEX
  5
520
330
518
100
AcDbEntity
  8
Spigoli visibili(ISO)
100
AcDbVertex
100
AcDb2dVertex
 10
547.1665320507351
 20
458.5498856808959
 30
0.0
  0
VERTEX
  5
521
330
518
100
AcDbEntity
  8
Spigoli visibili(ISO)
100
AcDbVertex
100
AcDb2dVertex
 10
546.8860471215755
 20
458.4715053721029
 30
0.0
  0
VERTEX
  5
522
330
518
100
AcDbEntity
  8
Spigoli visibili(ISO)
100
AcDbVertex
100
AcDb2dVertex
 10
546.6097223697966
 20
458.4080214185491
 30
0.0
  0
VERTEX
  5
523
330
518
100
AcDbEntity
  8
Spigoli visibili(ISO)
100
AcDbVertex
100
AcDb2dVertex
 10
546.3367102912769
 20
458.3590397308722
 30
0.0
  0
VERTEX
  5
524
330
518
100
AcDbEntity
  8
Spigoli visibili(ISO)
100
AcDbVertex
100
AcDb2dVertex
 10
546.066150533897
 20
458.3242626234123
 30
0.0
  0
VERTEX
  5
525
330
518
100
AcDbEntity
  8
Spigoli visibili(ISO)
100
AcDbVertex
100
AcDb2dVertex
 10
545.7971883123334
 20
458.3034780604823
 30
0.0
  0
VERTEX
  5
526
330
518
100
AcDbEntity
  8
Spigoli visibili(ISO)
100
AcDbVertex
100
AcDb2dVertex
 10
545.5290321265738
 20
458.2965654618345
 30
0.0
  0
VERTEX
  5
527
330
518
100
AcDbEntity
  8
Spigoli visibili(ISO)
100
AcDbVertex
100
AcDb2dVertex
 10
545.2608757730087
 20
458.3034721009326
 30
0.0
  0
VERTEX
  5
528
330
518
100
AcDbEntity
  8
Spigoli visibili(ISO)
100
AcDbVertex
100
AcDb2dVertex
 10
544.9919204704234
 20
458.3242594512041
 30
0.0
  0
VERTEX
  5
529
330
518
100
AcDbEntity
  8
Spigoli visibili(ISO)
100
AcDbVertex
100
AcDb2dVertex
 10
544.7213514969408
 20
458.3590378064605
 30
0.0
  0
VERTEX
  5
52A
330
518
100
AcDbEntity
  8
Spigoli visibili(ISO)
100
AcDbVertex
100
AcDb2dVertex
 10
544.448341282685
 20
458.4080138642161
 30
0.0
  0
VERTEX
  5
52B
330
518
100
AcDbEntity
  8
Spigoli visibili(ISO)
100
AcDbVertex
100
AcDb2dVertex
 10
544.1720309949879
 20
458.4715014794169
 30
0.0
  0
VERTEX
  5
52C
330
518
100
AcDbEntity
  8
Spigoli visibili(ISO)
100
AcDbVertex
100
AcDb2dVertex
 10
543.8915280642565
 20
458.5498835977858
 30
0.0
  0
VERTEX
  5
52D
330
518
100
AcDbEntity
  8
Spigoli visibili(ISO)
100
AcDbVertex
100
AcDb2dVertex
 10
543.6059276914331
 20
458.6436490854124
 30
0.0
  0
VERTEX
  5
52E
330
518
100
AcDbEntity
  8
Spigoli visibili(ISO)
100
AcDbVertex
100
AcDb2dVertex
 10
543.3142182998904
 20
458.7534084307446
 30
0.0
  0
VERTEX
  5
52F
330
518
100
AcDbEntity
  8
Spigoli visibili(ISO)
100
AcDbVertex
100
AcDb2dVertex
 10
543.0153558131427
 20
458.879860246335
 30
0.0
  0
VERTEX
  5
530
330
518
100
AcDbEntity
  8
Spigoli visibili(ISO)
100
AcDbVertex
100
AcDb2dVertex
 10
542.7082115031271
 20
459.0238711133474
 30
0.0
  0
VERTEX
  5
531
330
518
100
AcDbEntity
  8
Spigoli visibili(ISO)
100
AcDbVertex
100
AcDb2dVertex
 10
542.391548627146
 20
459.186410201977
 30
0.0
  0
VERTEX
  5
532
330
518
100
AcDbEntity
  8
Spigoli visibili(ISO)
100
AcDbVertex
100
AcDb2dVertex
 10
542.0640279946626
 20
459.3686349214238
 30
0.0
  0
SEQEND
  5
51B
330
518
100
AcDbEntity
  8
Spigoli visibili(ISO)
  0
LINE
  5
533
330
6C
100
AcDbEntity
  8
Spigoli visibili(ISO)
100
AcDbLine
 10
548.994034876895
 20
465.2208940636045
 30
0.0
 11
548.994034876895
 21
459.36863706499
 31
0.0
  0
LINE
  5
534
330
6C
100
AcDbEntity
  8
Spigoli visibili(ISO)
100
AcDbLine
 10
523.1340348768951
 20
458.2947655642972
 30
0.0
 11
521.2740348768952
 21
459.3686370649899
 31
0.0
  0
LINE
  5
535
330
6C
100
AcDbEntity
  8
Spigoli visibili(ISO)
100
AcDbLine
 10
547.1340348768952
 20
458.2947655642972
 30
0.0
 11
548.994034876895
 21
459.3686370649899
 31
0.0
  0
LINE
  5
536
330
6C
100
AcDbEntity
  8
Spigoli visibili(ISO)
100
AcDbLine
 10
547.134034876895
 20
466.2947655642972
 30
0.0
 11
548.994034876895
 21
465.2208940636045
 31
0.0
  0
LINE
  5
537
330
6C
100
AcDbEntity
  8
Spigoli visibili(ISO)
100
AcDbLine
 10
523.1340348768951
 20
466.2947655642972
 30
0.0
 11
521.2740348768951
 21
465.2208940636045
 31
0.0
  0
LINE
  5
538
330
6C
100
AcDbEntity
  8
Spigoli visibili(ISO)
100
AcDbLine
 10
521.2740348768952
 20
477.2208940636044
 30
0.0
 11
521.2740348768952
 21
471.3686370649898
 31
0.0
  0
POLYLINE
  5
539
330
6C
100
AcDbEntity
  8
Spigoli visibili(ISO)
100
AcDb2dPolyline
 66
     1
 10
0.0
 20
0.0
 30
0.0
 70
   128
  0
VERTEX
  5
53A
330
539
100
AcDbEntity
  8
Spigoli visibili(ISO)
100
AcDbVertex
100
AcDb2dVertex
 10
521.2740263328959
 20
477.2208911268896
 30
0.0
  0
VERTEX
  5
53B
330
539
100
AcDbEntity
  8
Spigoli visibili(ISO)
100
AcDbVertex
100
AcDb2dVertex
 10
521.6015524251067
 20
477.4031171006659
 30
0.0
  0
VERTEX
  5
53D
330
539
100
AcDbEntity
  8
Spigoli visibili(ISO)
100
AcDbVertex
100
AcDb2dVertex
 10
521.9182044563191
 20
477.5656650378898
 30
0.0
  0
VERTEX
  5
53E
330
539
100
AcDbEntity
  8
Spigoli visibili(ISO)
100
AcDbVertex
100
AcDb2dVertex
 10
522.2253558650026
 20
477.709668951035
 30
0.0
  0
VERTEX
  5
53F
330
539
100
AcDbEntity
  8
Spigoli visibili(ISO)
100
AcDbVertex
100
AcDb2dVertex
 10
522.5242179264817
 20
477.8361204824831
 30
0.0
  0
VERTEX
  5
540
330
539
100
AcDbEntity
  8
Spigoli visibili(ISO)
100
AcDbVertex
100
AcDb2dVertex
 10
522.8159165047781
 20
477.9458734729238
 30
0.0
  0
VERTEX
  5
541
330
539
100
AcDbEntity
  8
Spigoli visibili(ISO)
100
AcDbVertex
100
AcDb2dVertex
 10
523.1015301192648
 20
478.0396414872236
 30
0.0
  0
VERTEX
  5
542
330
539
100
AcDbEntity
  8
Spigoli visibili(ISO)
100
AcDbVertex
100
AcDb2dVertex
 10
523.3820347002843
 20
478.1180300756145
 30
0.0
  0
VERTEX
  5
543
330
539
100
AcDbEntity
  8
Spigoli visibili(ISO)
100
AcDbVertex
100
AcDb2dVertex
 10
523.6583404187356
 20
478.181515266234
 30
0.0
  0
VERTEX
  5
544
330
539
100
AcDbEntity
  8
Spigoli visibili(ISO)
100
AcDbVertex
100
AcDb2dVertex
 10
523.931352497255
 20
478.2304969539109
 30
0.0
  0
VERTEX
  5
545
330
539
100
AcDbEntity
  8
Spigoli visibili(ISO)
100
AcDbVertex
100
AcDb2dVertex
 10
524.2019312879619
 20
478.265272824305
 30
0.0
  0
VERTEX
  5
546
330
539
100
AcDbEntity
  8
Spigoli visibili(ISO)
100
AcDbVertex
100
AcDb2dVertex
 10
524.4708744761978
 20
478.2860586243008
 30
0.0
  0
VERTEX
  5
547
330
539
100
AcDbEntity
  8
Spigoli visibili(ISO)
100
AcDbVertex
100
AcDb2dVertex
 10
524.7390306619572
 20
478.2929712229486
 30
0.0
  0
VERTEX
  5
548
330
539
100
AcDbEntity
  8
Spigoli visibili(ISO)
100
AcDbVertex
100
AcDb2dVertex
 10
525.0071863969892
 20
478.2860550671869
 30
0.0
  0
VERTEX
  5
549
330
539
100
AcDbEntity
  8
Spigoli visibili(ISO)
100
AcDbVertex
100
AcDb2dVertex
 10
525.2761416995743
 20
478.2652677169154
 30
0.0
  0
VERTEX
  5
54A
330
539
100
AcDbEntity
  8
Spigoli visibili(ISO)
100
AcDbVertex
100
AcDb2dVertex
 10
525.5467112915893
 20
478.2304988783226
 30
0.0
  0
VERTEX
  5
54B
330
539
100
AcDbEntity
  8
Spigoli visibili(ISO)
100
AcDbVertex
100
AcDb2dVertex
 10
525.8197399206393
 20
478.1815120668375
 30
0.0
  0
VERTEX
  5
54C
330
539
100
AcDbEntity
  8
Spigoli visibili(ISO)
100
AcDbVertex
100
AcDb2dVertex
 10
526.0960502083362
 20
478.1180244516368
 30
0.0
  0
VERTEX
  5
54D
330
539
100
AcDbEntity
  8
Spigoli visibili(ISO)
100
AcDbVertex
100
AcDb2dVertex
 10
526.3765341057399
 20
478.0396435703336
 30
0.0
  0
VERTEX
  5
54E
330
539
100
AcDbEntity
  8
Spigoli visibili(ISO)
100
AcDbVertex
100
AcDb2dVertex
 10
526.6621535118904
 20
477.9458768456413
 30
0.0
  0
VERTEX
  5
54F
330
539
100
AcDbEntity
  8
Spigoli visibili(ISO)
100
AcDbVertex
100
AcDb2dVertex
 10
526.9538635219658
 20
477.8361270169727
 30
0.0
  0
VERTEX
  5
550
330
539
100
AcDbEntity
  8
Spigoli visibili(ISO)
100
AcDbVertex
100
AcDb2dVertex
 10
527.2527253901803
 20
477.7096656847187
 30
0.0
  0
VERTEX
  5
551
330
539
100
AcDbEntity
  8
Spigoli visibili(ISO)
100
AcDbVertex
100
AcDb2dVertex
 10
527.5598703187284
 20
477.56566433437
 30
0.0
  0
VERTEX
  5
552
330
539
100
AcDbEntity
  8
Spigoli visibili(ISO)
100
AcDbVertex
100
AcDb2dVertex
 10
527.8765141613819
 20
477.4031264828062
 30
0.0
  0
VERTEX
  5
553
330
539
100
AcDbEntity
  8
Spigoli visibili(ISO)
100
AcDbVertex
100
AcDb2dVertex
 10
528.204034175332
 20
477.2208922466957
 30
0.0
  0
SEQEND
  5
53C
330
539
100
AcDbEntity
  8
Spigoli visibili(ISO)
  0
POLYLINE
  5
554
330
6C
100
AcDbEntity
  8
Spigoli visibili(ISO)
100
AcDb2dPolyline
 66
     1
 10
0.0
 20
0.0
 30
0.0
 70
   128
  0
VERTEX
  5
555
330
554
100
AcDbEntity
  8
Spigoli visibili(ISO)
100
AcDbVertex
100
AcDb2dVertex
 10
528.2040319616434
 20
471.3686409614094
 30
0.0
  0
VERTEX
  5
556
330
554
100
AcDbEntity
  8
Spigoli visibili(ISO)
100
AcDbVertex
100
AcDb2dVertex
 10
527.87652490276
 20
471.1864137505673
 30
0.0
  0
VERTEX
  5
558
330
554
100
AcDbEntity
  8
Spigoli visibili(ISO)
100
AcDbVertex
100
AcDb2dVertex
 10
527.5598728715476
 20
471.0238658133434
 30
0.0
  0
VERTEX
  5
559
330
554
100
AcDbEntity
  8
Spigoli visibili(ISO)
100
AcDbVertex
100
AcDb2dVertex
 10
527.2527214628642
 20
470.8798619001982
 30
0.0
  0
VERTEX
  5
55A
330
554
100
AcDbEntity
  8
Spigoli visibili(ISO)
100
AcDbVertex
100
AcDb2dVertex
 10
526.953859401385
 20
470.7534103687502
 30
0.0
  0
VERTEX
  5
55B
330
554
100
AcDbEntity
  8
Spigoli visibili(ISO)
100
AcDbVertex
100
AcDb2dVertex
 10
526.6621417897614
 20
470.6436586153754
 30
0.0
  0
VERTEX
  5
55C
330
554
100
AcDbEntity
  8
Spigoli visibili(ISO)
100
AcDbVertex
100
AcDb2dVertex
 10
526.3765465900688
 20
470.5498798473459
 30
0.0
  0
VERTEX
  5
55D
330
554
100
AcDbEntity
  8
Spigoli visibili(ISO)
100
AcDbVertex
100
AcDb2dVertex
 10
526.0960426275824
 20
470.4715007756187
 30
0.0
  0
VERTEX
  5
55E
330
554
100
AcDbEntity
  8
Spigoli visibili(ISO)
100
AcDbVertex
100
AcDb2dVertex
 10
525.819736909131
 20
470.4080155849992
 30
0.0
  0
VERTEX
  5
55F
330
554
100
AcDbEntity
  8
Spigoli visibili(ISO)
100
AcDbVertex
100
AcDb2dVertex
 10
525.5467057972843
 20
470.3590351343882
 30
0.0
  0
VERTEX
  5
560
330
554
100
AcDbEntity
  8
Spigoli visibili(ISO)
100
AcDbVertex
100
AcDb2dVertex
 10
525.2761460399047
 20
470.3242580269282
 30
0.0
  0
VERTEX
  5
561
330
554
100
AcDbEntity
  8
Spigoli visibili(ISO)
100
AcDbVertex
100
AcDb2dVertex
 10
525.0071838183414
 20
470.3034734639983
 30
0.0
  0
VERTEX
  5
562
330
554
100
AcDbEntity
  8
Spigoli visibili(ISO)
100
AcDbVertex
100
AcDb2dVertex
 10
524.7390276325821
 20
470.2965608653505
 30
0.0
  0
VERTEX
  5
563
330
554
100
AcDbEntity
  8
Spigoli visibili(ISO)
100
AcDbVertex
100
AcDb2dVertex
 10
524.4708909308774
 20
470.3034757840464
 30
0.0
  0
VERTEX
  5
564
330
554
100
AcDbEntity
  8
Spigoli visibili(ISO)
100
AcDbVertex
100
AcDb2dVertex
 10
524.2019356282924
 20
470.3242631343178
 30
0.0
  0
VERTEX
  5
565
330
554
100
AcDbEntity
  8
Spigoli visibili(ISO)
100
AcDbVertex
100
AcDb2dVertex
 10
523.9313470029498
 20
470.3590332099764
 30
0.0
  0
VERTEX
  5
566
330
554
100
AcDbEntity
  8
Spigoli visibili(ISO)
100
AcDbVertex
100
AcDb2dVertex
 10
523.6583374072274
 20
470.4080187843957
 30
0.0
  0
VERTEX
  5
567
330
554
100
AcDbEntity
  8
Spigoli visibili(ISO)
100
AcDbVertex
100
AcDb2dVertex
 10
523.3820271195305
 20
470.4715063995965
 30
0.0
  0
VERTEX
  5
568
330
554
100
AcDbEntity
  8
Spigoli visibili(ISO)
100
AcDbVertex
100
AcDb2dVertex
 10
523.1015241887995
 20
470.5498885179654
 30
0.0
  0
VERTEX
  5
569
330
554
100
AcDbEntity
  8
Spigoli visibili(ISO)
100
AcDbVertex
100
AcDb2dVertex
 10
522.8159238159763
 20
470.643654005592
 30
0.0
  0
VERTEX
  5
56A
330
554
100
AcDbEntity
  8
Spigoli visibili(ISO)
100
AcDbVertex
100
AcDb2dVertex
 10
522.5242138059009
 20
470.7534038342605
 30
0.0
  0
VERTEX
  5
56B
330
554
100
AcDbEntity
  8
Spigoli visibili(ISO)
100
AcDbVertex
100
AcDb2dVertex
 10
522.2253519376864
 20
470.8798651665145
 30
0.0
  0
VERTEX
  5
56C
330
554
100
AcDbEntity
  8
Spigoli visibili(ISO)
100
AcDbVertex
100
AcDb2dVertex
 10
521.9182070091382
 20
471.0238665168632
 30
0.0
  0
VERTEX
  5
56D
330
554
100
AcDbEntity
  8
Spigoli visibili(ISO)
100
AcDbVertex
100
AcDb2dVertex
 10
521.6015441331574
 20
471.1864056054929
 30
0.0
  0
VERTEX
  5
56E
330
554
100
AcDbEntity
  8
Spigoli visibili(ISO)
100
AcDbVertex
100
AcDb2dVertex
 10
521.2740431525346
 20
471.3686386045376
 30
0.0
  0
SEQEND
  5
557
330
554
100
AcDbEntity
  8
Spigoli visibili(ISO)
  0
LINE
  5
56F
330
6C
100
AcDbEntity
  8
Spigoli visibili(ISO)
100
AcDbLine
 10
528.2040348768914
 20
471.3686370649898
 30
0.0
 11
528.2040348768914
 21
477.2208940636044
 31
0.0
  0
POLYLINE
  5
570
330
6C
100
AcDbEntity
  8
Spigoli visibili(ISO)
100
AcDb2dPolyline
 66
     1
 10
0.0
 20
0.0
 30
0.0
 70
   128
  0
VERTEX
  5
571
330
570
100
AcDbEntity
  8
Spigoli visibili(ISO)
100
AcDbVertex
100
AcDb2dVertex
 10
528.204034175332
 20
477.2208922466957
 30
0.0
  0
VERTEX
  5
572
330
570
100
AcDbEntity
  8
Spigoli visibili(ISO)
100
AcDbVertex
100
AcDb2dVertex
 10
528.8590553891654
 20
477.4031254615673
 30
0.0
  0
VERTEX
  5
574
330
570
100
AcDbEntity
  8
Spigoli visibili(ISO)
100
AcDbVertex
100
AcDb2dVertex
 10
529.4923826702363
 20
477.5656575526951
 30
0.0
  0
VERTEX
  5
575
330
570
100
AcDbEntity
  8
Spigoli visibili(ISO)
100
AcDbVertex
100
AcDb2dVertex
 10
530.1066727308723
 20
477.7096633657715
 30
0.0
  0
VERTEX
  5
576
330
570
100
AcDbEntity
  8
Spigoli visibili(ISO)
100
AcDbVertex
100
AcDb2dVertex
 10
530.7043783424042
 20
477.8361207505461
 30
0.0
  0
VERTEX
  5
577
330
570
100
AcDbEntity
  8
Spigoli visibili(ISO)
100
AcDbVertex
100
AcDb2dVertex
 10
531.2878097648775
 20
477.9458734662742
 30
0.0
  0
VERTEX
  5
578
330
570
100
AcDbEntity
  8
Spigoli visibili(ISO)
100
AcDbVertex
100
AcDb2dVertex
 10
531.8590211656226
 20
478.0396481207754
 30
0.0
  0
VERTEX
  5
579
330
570
100
AcDbEntity
  8
Spigoli visibili(ISO)
100
AcDbVertex
100
AcDb2dVertex
 10
532.4200193673209
 20
478.1180310460464
 30
0.0
  0
VERTEX
  5
57A
330
570
100
AcDbEntity
  8
Spigoli visibili(ISO)
100
AcDbVertex
100
AcDb2dVertex
 10
532.9726521221739
 20
478.1815137873095
 30
0.0
  0
VERTEX
  5
57B
330
570
100
AcDbEntity
  8
Spigoli visibili(ISO)
100
AcDbVertex
100
AcDb2dVertex
 10
533.5186658304174
 20
478.23049890848
 30
0.0
  0
VERTEX
  5
57C
330
570
100
AcDbEntity
  8
Spigoli visibili(ISO)
100
AcDbVertex
100
AcDb2dVertex
 10
534.0598185032193
 20
478.265273536443
 30
0.0
  0
VERTEX
  5
57D
330
570
100
AcDbEntity
  8
Spigoli visibili(ISO)
100
AcDbVertex
100
AcDb2dVertex
 10
534.5977299701933
 20
478.2860573242351
 30
0.0
  0
VERTEX
  5
57E
330
570
100
AcDbEntity
  8
Spigoli visibili(ISO)
100
AcDbVertex
100
AcDb2dVertex
 10
535.1340329089514
 20
478.2929735211906
 30
0.0
  0
VERTEX
  5
57F
330
570
100
AcDbEntity
  8
Spigoli visibili(ISO)
100
AcDbVertex
100
AcDb2dVertex
 10
535.6703347784493
 20
478.2860514470731
 30
0.0
  0
VERTEX
  5
580
330
570
100
AcDbEntity
  8
Spigoli visibili(ISO)
100
AcDbVertex
100
AcDb2dVertex
 10
536.2082589783051
 20
478.2652716012616
 30
0.0
  0
VERTEX
  5
581
330
570
100
AcDbEntity
  8
Spigoli visibili(ISO)
100
AcDbVertex
100
AcDb2dVertex
 10
536.7494018338824
 20
478.2304920035739
 30
0.0
  0
VERTEX
  5
582
330
570
100
AcDbEntity
  8
Spigoli visibili(ISO)
100
AcDbVertex
100
AcDb2dVertex
 10
537.2954320926563
 20
478.1815086255824
 30
0.0
  0
VERTEX
  5
583
330
570
100
AcDbEntity
  8
Spigoli visibili(ISO)
100
AcDbVertex
100
AcDb2dVertex
 10
537.8480510019605
 20
478.1180293147548
 30
0.0
  0
VERTEX
  5
584
330
570
100
AcDbEntity
  8
Spigoli visibili(ISO)
100
AcDbVertex
100
AcDb2dVertex
 10
538.4090475533705
 20
478.0396415332659
 30
0.0
  0
VERTEX
  5
585
330
570
100
AcDbEntity
  8
Spigoli visibili(ISO)
100
AcDbVertex
100
AcDb2dVertex
 10
538.980264745779
 20
477.945881448775
 30
0.0
  0
VERTEX
  5
586
330
570
100
AcDbEntity
  8
Spigoli visibili(ISO)
100
AcDbVertex
100
AcDb2dVertex
 10
539.5636879481712
 20
477.836123065796
 30
0.0
  0
VERTEX
  5
587
330
570
100
AcDbEntity
  8
Spigoli visibili(ISO)
100
AcDbVertex
100
AcDb2dVertex
 10
540.1614123997658
 20
477.7096663498026
 30
0.0
  0
VERTEX
  5
588
330
570
100
AcDbEntity
  8
Spigoli visibili(ISO)
100
AcDbVertex
100
AcDb2dVertex
 10
540.7756959802664
 20
477.5656668993851
 30
0.0
  0
VERTEX
  5
589
330
570
100
AcDbEntity
  8
Spigoli visibili(ISO)
100
AcDbVertex
100
AcDb2dVertex
 10
541.4090156913114
 20
477.4031227183889
 30
0.0
  0
VERTEX
  5
58A
330
570
100
AcDbEntity
  8
Spigoli visibili(ISO)
100
AcDbVertex
100
AcDb2dVertex
 10
542.0640308268842
 20
477.2208957233737
 30
0.0
  0
SEQEND
  5
573
330
570
100
AcDbEntity
  8
Spigoli visibili(ISO)
  0
POLYLINE
  5
58B
330
6C
100
AcDbEntity
  8
Spigoli visibili(ISO)
100
AcDb2dPolyline
 66
     1
 10
0.0
 20
0.0
 30
0.0
 70
   128
  0
VERTEX
  5
58C
330
58B
100
AcDbEntity
  8
Spigoli visibili(ISO)
100
AcDbVertex
100
AcDb2dVertex
 10
542.0640279946626
 20
471.3686349214238
 30
0.0
  0
VERTEX
  5
58D
330
58B
100
AcDbEntity
  8
Spigoli visibili(ISO)
100
AcDbVertex
100
AcDb2dVertex
 10
541.4090073993621
 20
471.1864112232159
 30
0.0
  0
VERTEX
  5
58F
330
58B
100
AcDbEntity
  8
Spigoli visibili(ISO)
100
AcDbVertex
100
AcDb2dVertex
 10
540.7756985330856
 20
471.0238683783585
 30
0.0
  0
VERTEX
  5
590
330
58B
100
AcDbEntity
  8
Spigoli visibili(ISO)
100
AcDbVertex
100
AcDb2dVertex
 10
540.1614084724496
 20
470.8798625652821
 30
0.0
  0
VERTEX
  5
591
330
58B
100
AcDbEntity
  8
Spigoli visibili(ISO)
100
AcDbVertex
100
AcDb2dVertex
 10
539.5636838275904
 20
470.7534064175734
 30
0.0
  0
VERTEX
  5
592
330
58B
100
AcDbEntity
  8
Spigoli visibili(ISO)
100
AcDbVertex
100
AcDb2dVertex
 10
538.9802714384444
 20
470.6436524647796
 30
0.0
  0
VERTEX
  5
593
330
58B
100
AcDbEntity
  8
Spigoli visibili(ISO)
100
AcDbVertex
100
AcDb2dVertex
 10
538.4090416229049
 20
470.5498885640077
 30
0.0
  0
VERTEX
  5
594
330
58B
100
AcDbEntity
  8
Spigoli visibili(ISO)
100
AcDbVertex
100
AcDb2dVertex
 10
537.8480434212066
 20
470.4715056387367
 30
0.0
  0
VERTEX
  5
595
330
58B
100
AcDbEntity
  8
Spigoli visibili(ISO)
100
AcDbVertex
100
AcDb2dVertex
 10
537.2954296996808
 20
470.4080216604078
 30
0.0
  0
VERTEX
  5
596
330
58B
100
AcDbEntity
  8
Spigoli visibili(ISO)
100
AcDbVertex
100
AcDb2dVertex
 10
536.7493969581102
 20
470.3590377763031
 30
0.0
  0
VERTEX
  5
597
330
58B
100
AcDbEntity
  8
Spigoli visibili(ISO)
100
AcDbVertex
100
AcDb2dVertex
 10
536.2082442853083
 20
470.3242631483402
 30
0.0
  0
VERTEX
  5
598
330
58B
100
AcDbEntity
  8
Spigoli visibili(ISO)
100
AcDbVertex
100
AcDb2dVertex
 10
535.6703328183344
 20
470.303479360548
 30
0.0
  0
VERTEX
  5
599
330
58B
100
AcDbEntity
  8
Spigoli visibili(ISO)
100
AcDbVertex
100
AcDb2dVertex
 10
535.1340298795762
 20
470.2965631635925
 30
0.0
  0
VERTEX
  5
59A
330
58B
100
AcDbEntity
  8
Spigoli visibili(ISO)
100
AcDbVertex
100
AcDb2dVertex
 10
534.5977273915455
 20
470.3034757210465
 30
0.0
  0
VERTEX
  5
59B
330
58B
100
AcDbEntity
  8
Spigoli visibili(ISO)
100
AcDbVertex
100
AcDb2dVertex
 10
534.0598222250169
 20
470.324254329792
 30
0.0
  0
VERTEX
  5
59C
330
58B
100
AcDbEntity
  8
Spigoli visibili(ISO)
100
AcDbVertex
100
AcDb2dVertex
 10
533.5186793694396
 20
470.3590339274797
 30
0.0
  0
VERTEX
  5
59D
330
58B
100
AcDbEntity
  8
Spigoli visibili(ISO)
100
AcDbVertex
100
AcDb2dVertex
 10
532.9726491106656
 20
470.4080173054713
 30
0.0
  0
VERTEX
  5
59E
330
58B
100
AcDbEntity
  8
Spigoli visibili(ISO)
100
AcDbVertex
100
AcDb2dVertex
 10
532.4200117865671
 20
470.4715073700283
 30
0.0
  0
VERTEX
  5
59F
330
58B
100
AcDbEntity
  8
Spigoli visibili(ISO)
100
AcDbVertex
100
AcDb2dVertex
 10
531.8590336499515
 20
470.5498843977878
 30
0.0
  0
VERTEX
  5
5A0
330
58B
100
AcDbEntity
  8
Spigoli visibili(ISO)
100
AcDbVertex
100
AcDb2dVertex
 10
531.2877980427486
 20
470.6436552360082
 30
0.0
  0
VERTEX
  5
5A1
330
58B
100
AcDbEntity
  8
Spigoli visibili(ISO)
100
AcDbVertex
100
AcDb2dVertex
 10
530.7043938736836
 20
470.7534123819214
 30
0.0
  0
VERTEX
  5
5A2
330
58B
100
AcDbEntity
  8
Spigoli visibili(ISO)
100
AcDbVertex
100
AcDb2dVertex
 10
530.1066694220891
 20
470.8798690979147
 30
0.0
  0
VERTEX
  5
5A3
330
58B
100
AcDbEntity
  8
Spigoli visibili(ISO)
100
AcDbVertex
100
AcDb2dVertex
 10
529.4923668082612
 20
471.0238697853981
 30
0.0
  0
VERTEX
  5
5A4
330
58B
100
AcDbEntity
  8
Spigoli visibili(ISO)
100
AcDbVertex
100
AcDb2dVertex
 10
528.8590661305436
 20
471.1864127293285
 30
0.0
  0
VERTEX
  5
5A5
330
58B
100
AcDbEntity
  8
Spigoli visibili(ISO)
100
AcDbVertex
100
AcDb2dVertex
 10
528.2040319616434
 20
471.3686409614094
 30
0.0
  0
SEQEND
  5
58E
330
58B
100
AcDbEntity
  8
Spigoli visibili(ISO)
  0
LINE
  5
5A6
330
6C
100
AcDbEntity
  8
Spigoli visibili(ISO)
100
AcDbLine
 10
542.0640348768917
 20
477.2208940636045
 30
0.0
 11
542.0640348768917
 21
471.3686370649899
 31
0.0
  0
POLYLINE
  5
5A7
330
6C
100
AcDbEntity
  8
Spigoli visibili(ISO)
100
AcDb2dPolyline
 66
     1
 10
0.0
 20
0.0
 30
0.0
 70
   128
  0
VERTEX
  5
5A8
330
5A7
100
AcDbEntity
  8
Spigoli visibili(ISO)
100
AcDbVertex
100
AcDb2dVertex
 10
542.0640308268842
 20
477.2208957233737
 30
0.0
  0
VERTEX
  5
5A9
330
5A7
100
AcDbEntity
  8
Spigoli visibili(ISO)
100
AcDbVertex
100
AcDb2dVertex
 10
542.3915378857678
 20
477.4031229342158
 30
0.0
  0
VERTEX
  5
5AB
330
5A7
100
AcDbEntity
  8
Spigoli visibili(ISO)
100
AcDbVertex
100
AcDb2dVertex
 10
542.708208331775
 20
477.5656601177103
 30
0.0
  0
VERTEX
  5
5AC
330
5A7
100
AcDbEntity
  8
Spigoli visibili(ISO)
100
AcDbVertex
100
AcDb2dVertex
 10
543.0153407071315
 20
477.7096652679213
 30
0.0
  0
VERTEX
  5
5AD
330
5A7
100
AcDbEntity
  8
Spigoli visibili(ISO)
100
AcDbVertex
100
AcDb2dVertex
 10
543.3142033871438
 20
477.8361263160329
 30
0.0
  0
VERTEX
  5
5AE
330
5A7
100
AcDbEntity
  8
Spigoli visibili(ISO)
100
AcDbVertex
100
AcDb2dVertex
 10
543.6059209987678
 20
477.9458780694078
 30
0.0
  0
VERTEX
  5
5AF
330
5A7
100
AcDbEntity
  8
Spigoli visibili(ISO)
100
AcDbVertex
100
AcDb2dVertex
 10
543.8915346132549
 20
478.0396460837078
 30
0.0
  0
VERTEX
  5
5B0
330
5A7
100
AcDbEntity
  8
Spigoli visibili(ISO)
100
AcDbVertex
100
AcDb2dVertex
 10
544.1720195424145
 20
478.1180263925007
 30
0.0
  0
VERTEX
  5
5B1
330
5A7
100
AcDbEntity
  8
Spigoli visibili(ISO)
100
AcDbVertex
100
AcDb2dVertex
 10
544.4483442941934
 20
478.1815103460544
 30
0.0
  0
VERTEX
  5
5B2
330
5A7
100
AcDbEntity
  8
Spigoli visibili(ISO)
100
AcDbVertex
100
AcDb2dVertex
 10
544.7213563727131
 20
478.2304920337312
 30
0.0
  0
VERTEX
  5
5B3
330
5A7
100
AcDbEntity
  8
Spigoli visibili(ISO)
100
AcDbVertex
100
AcDb2dVertex
 10
544.9919351634203
 20
478.2652679041254
 30
0.0
  0
VERTEX
  5
5B4
330
5A7
100
AcDbEntity
  8
Spigoli visibili(ISO)
100
AcDbVertex
100
AcDb2dVertex
 10
545.2608783516565
 20
478.2860537041212
 30
0.0
  0
VERTEX
  5
5B5
330
5A7
100
AcDbEntity
  8
Spigoli visibili(ISO)
100
AcDbVertex
100
AcDb2dVertex
 10
545.5290345374162
 20
478.2929663027689
 30
0.0
  0
VERTEX
  5
5B6
330
5A7
100
AcDbEntity
  8
Spigoli visibili(ISO)
100
AcDbVertex
100
AcDb2dVertex
 10
545.7971902724485
 20
478.2860501470072
 30
0.0
  0
VERTEX
  5
5B7
330
5A7
100
AcDbEntity
  8
Spigoli visibili(ISO)
100
AcDbVertex
100
AcDb2dVertex
 10
546.0661461935666
 20
478.2652723133995
 30
0.0
  0
VERTEX
  5
5B8
330
5A7
100
AcDbEntity
  8
Spigoli visibili(ISO)
100
AcDbVertex
100
AcDb2dVertex
 10
546.3367151670492
 20
478.2304939581431
 30
0.0
  0
VERTEX
  5
5B9
330
5A7
100
AcDbEntity
  8
Spigoli visibili(ISO)
100
AcDbVertex
100
AcDb2dVertex
 10
546.6097247627721
 20
478.1815083837237
 30
0.0
  0
VERTEX
  5
5BA
330
5A7
100
AcDbEntity
  8
Spigoli visibili(ISO)
100
AcDbVertex
100
AcDb2dVertex
 10
546.8860356690021
 20
478.1180302851868
 30
0.0
  0
VERTEX
  5
5BB
330
5A7
100
AcDbEntity
  8
Spigoli visibili(ISO)
100
AcDbVertex
100
AcDb2dVertex
 10
547.1665385997333
 20
478.0396481668176
 30
0.0
  0
VERTEX
  5
5BC
330
5A7
100
AcDbEntity
  8
Spigoli visibili(ISO)
100
AcDbVertex
100
AcDb2dVertex
 10
547.4521580058841
 20
477.9458814421253
 30
0.0
  0
VERTEX
  5
5BD
330
5A7
100
AcDbEntity
  8
Spigoli visibili(ISO)
100
AcDbVertex
100
AcDb2dVertex
 10
547.7438673974269
 20
477.8361220967932
 30
0.0
  0
VERTEX
  5
5BE
330
5A7
100
AcDbEntity
  8
Spigoli visibili(ISO)
100
AcDbVertex
100
AcDb2dVertex
 10
548.0427108508473
 20
477.7096715182686
 30
0.0
  0
VERTEX
  5
5BF
330
5A7
100
AcDbEntity
  8
Spigoli visibili(ISO)
100
AcDbVertex
100
AcDb2dVertex
 10
548.3498741941901
 20
477.5656594141905
 30
0.0
  0
VERTEX
  5
5C0
330
5A7
100
AcDbEntity
  8
Spigoli visibili(ISO)
100
AcDbVertex
100
AcDb2dVertex
 10
548.666518036844
 20
477.4031215626266
 30
0.0
  0
VERTEX
  5
5C1
330
5A7
100
AcDbEntity
  8
Spigoli visibili(ISO)
100
AcDbVertex
100
AcDb2dVertex
 10
548.9940386693274
 20
477.2208968431797
 30
0.0
  0
SEQEND
  5
5AA
330
5A7
100
AcDbEntity
  8
Spigoli visibili(ISO)
  0
POLYLINE
  5
5C2
330
6C
100
AcDbEntity
  8
Spigoli visibili(ISO)
100
AcDb2dPolyline
 66
     1
 10
0.0
 20
0.0
 30
0.0
 70
   128
  0
VERTEX
  5
5C3
330
5C2
100
AcDbEntity
  8
Spigoli visibili(ISO)
100
AcDbVertex
100
AcDb2dVertex
 10
548.9940358371058
 20
471.3686360412299
 30
0.0
  0
VERTEX
  5
5C4
330
5C2
100
AcDbEntity
  8
Spigoli visibili(ISO)
100
AcDbVertex
100
AcDb2dVertex
 10
548.666528778222
 20
471.1864088303878
 30
0.0
  0
VERTEX
  5
5C6
330
5C2
100
AcDbEntity
  8
Spigoli visibili(ISO)
100
AcDbVertex
100
AcDb2dVertex
 10
548.3498583322149
 20
471.0238716468933
 30
0.0
  0
VERTEX
  5
5C7
330
5C2
100
AcDbEntity
  8
Spigoli visibili(ISO)
100
AcDbVertex
100
AcDb2dVertex
 10
548.0427259568585
 20
470.8798664966823
 30
0.0
  0
VERTEX
  5
5C8
330
5C2
100
AcDbEntity
  8
Spigoli visibili(ISO)
100
AcDbVertex
100
AcDb2dVertex
 10
547.743863276846
 20
470.7534054485706
 30
0.0
  0
VERTEX
  5
5C9
330
5C2
100
AcDbEntity
  8
Spigoli visibili(ISO)
100
AcDbVertex
100
AcDb2dVertex
 10
547.4521456652222
 20
470.6436536951957
 30
0.0
  0
VERTEX
  5
5CA
330
5C2
100
AcDbEntity
  8
Spigoli visibili(ISO)
100
AcDbVertex
100
AcDb2dVertex
 10
547.1665320507351
 20
470.5498856808958
 30
0.0
  0
VERTEX
  5
5CB
330
5C2
100
AcDbEntity
  8
Spigoli visibili(ISO)
100
AcDbVertex
100
AcDb2dVertex
 10
546.8860471215755
 20
470.4715053721028
 30
0.0
  0
VERTEX
  5
5CC
330
5C2
100
AcDbEntity
  8
Spigoli visibili(ISO)
100
AcDbVertex
100
AcDb2dVertex
 10
546.6097223697966
 20
470.408021418549
 30
0.0
  0
VERTEX
  5
5CD
330
5C2
100
AcDbEntity
  8
Spigoli visibili(ISO)
100
AcDbVertex
100
AcDb2dVertex
 10
546.3367102912769
 20
470.3590397308722
 30
0.0
  0
VERTEX
  5
5CE
330
5C2
100
AcDbEntity
  8
Spigoli visibili(ISO)
100
AcDbVertex
100
AcDb2dVertex
 10
546.066150533897
 20
470.3242626234123
 30
0.0
  0
VERTEX
  5
5CF
330
5C2
100
AcDbEntity
  8
Spigoli visibili(ISO)
100
AcDbVertex
100
AcDb2dVertex
 10
545.7971883123334
 20
470.3034780604824
 30
0.0
  0
VERTEX
  5
5D0
330
5C2
100
AcDbEntity
  8
Spigoli visibili(ISO)
100
AcDbVertex
100
AcDb2dVertex
 10
545.5290321265738
 20
470.2965654618346
 30
0.0
  0
VERTEX
  5
5D1
330
5C2
100
AcDbEntity
  8
Spigoli visibili(ISO)
100
AcDbVertex
100
AcDb2dVertex
 10
545.2608757730087
 20
470.3034721009325
 30
0.0
  0
VERTEX
  5
5D2
330
5C2
100
AcDbEntity
  8
Spigoli visibili(ISO)
100
AcDbVertex
100
AcDb2dVertex
 10
544.9919204704234
 20
470.324259451204
 30
0.0
  0
VERTEX
  5
5D3
330
5C2
100
AcDbEntity
  8
Spigoli visibili(ISO)
100
AcDbVertex
100
AcDb2dVertex
 10
544.7213514969408
 20
470.3590378064604
 30
0.0
  0
VERTEX
  5
5D4
330
5C2
100
AcDbEntity
  8
Spigoli visibili(ISO)
100
AcDbVertex
100
AcDb2dVertex
 10
544.448341282685
 20
470.4080138642161
 30
0.0
  0
VERTEX
  5
5D5
330
5C2
100
AcDbEntity
  8
Spigoli visibili(ISO)
100
AcDbVertex
100
AcDb2dVertex
 10
544.1720309949879
 20
470.4715014794168
 30
0.0
  0
VERTEX
  5
5D6
330
5C2
100
AcDbEntity
  8
Spigoli visibili(ISO)
100
AcDbVertex
100
AcDb2dVertex
 10
543.8915280642565
 20
470.5498835977858
 30
0.0
  0
VERTEX
  5
5D7
330
5C2
100
AcDbEntity
  8
Spigoli visibili(ISO)
100
AcDbVertex
100
AcDb2dVertex
 10
543.6059276914331
 20
470.6436490854124
 30
0.0
  0
VERTEX
  5
5D8
330
5C2
100
AcDbEntity
  8
Spigoli visibili(ISO)
100
AcDbVertex
100
AcDb2dVertex
 10
543.3142182998904
 20
470.7534084307446
 30
0.0
  0
VERTEX
  5
5D9
330
5C2
100
AcDbEntity
  8
Spigoli visibili(ISO)
100
AcDbVertex
100
AcDb2dVertex
 10
543.0153558131427
 20
470.8798602463349
 30
0.0
  0
VERTEX
  5
5DA
330
5C2
100
AcDbEntity
  8
Spigoli visibili(ISO)
100
AcDbVertex
100
AcDb2dVertex
 10
542.7082115031271
 20
471.0238711133473
 30
0.0
  0
VERTEX
  5
5DB
330
5C2
100
AcDbEntity
  8
Spigoli visibili(ISO)
100
AcDbVertex
100
AcDb2dVertex
 10
542.391548627146
 20
471.186410201977
 30
0.0
  0
VERTEX
  5
5DC
330
5C2
100
AcDbEntity
  8
Spigoli visibili(ISO)
100
AcDbVertex
100
AcDb2dVertex
 10
542.0640279946626
 20
471.3686349214238
 30
0.0
  0
SEQEND
  5
5C5
330
5C2
100
AcDbEntity
  8
Spigoli visibili(ISO)
  0
LINE
  5
5DD
330
6C
100
AcDbEntity
  8
Spigoli visibili(ISO)
100
AcDbLine
 10
548.994034876895
 20
477.2208940636044
 30
0.0
 11
548.994034876895
 21
471.3686370649899
 31
0.0
  0
LINE
  5
5DE
330
6C
100
AcDbEntity
  8
Spigoli visibili(ISO)
100
AcDbLine
 10
547.1340348768952
 20
478.2947655642971
 30
0.0
 11
523.1340348768951
 21
478.2947655642971
 31
0.0
  0
LINE
  5
5DF
330
6C
100
AcDbEntity
  8
Spigoli visibili(ISO)
100
AcDbLine
 10
523.1340348768951
 20
470.2947655642971
 30
0.0
 11
521.2740348768952
 21
471.3686370649898
 31
0.0
  0
LINE
  5
5E0
330
6C
100
AcDbEntity
  8
Spigoli visibili(ISO)
100
AcDbLine
 10
547.1340348768952
 20
470.2947655642971
 30
0.0
 11
548.994034876895
 21
471.3686370649898
 31
0.0
  0
LINE
  5
5E1
330
6C
100
AcDbEntity
  8
Spigoli visibili(ISO)
100
AcDbLine
 10
547.134034876895
 20
478.2947655642971
 30
0.0
 11
548.994034876895
 21
477.2208940636044
 31
0.0
  0
LINE
  5
5E2
330
6C
100
AcDbEntity
  8
Spigoli visibili(ISO)
100
AcDbLine
 10
523.1340348768951
 20
478.2947655642971
 30
0.0
 11
521.2740348768951
 21
477.2208940636044
 31
0.0
  0
LINE
  5
5E3
330
6C
100
AcDbEntity
  8
Spigoli visibili(ISO)
100
AcDbLine
 10
353.7494606133988
 20
91.56360020814352
 30
0.0
 11
133.7494606133988
 21
91.56360020814352
 31
0.0
  0
LINE
  5
5E4
330
6C
100
AcDbEntity
  8
Spigoli visibili(ISO)
100
AcDbLine
 10
133.7494606133988
 20
266.5636002081436
 30
0.0
 11
353.7494606133988
 21
266.5636002081436
 31
0.0
  0
LINE
  5
5E5
330
6C
100
AcDbEntity
  8
Spigoli visibili(ISO)
100
AcDbLine
 10
133.7494606133988
 20
99.56360020814589
 30
0.0
 11
133.7494606133988
 21
91.5636002081435
 31
0.0
  0
LINE
  5
5E6
330
6C
100
AcDbEntity
  8
Spigoli visibili(ISO)
100
AcDbLine
 10
353.7494606133988
 20
99.56360020814589
 30
0.0
 11
353.7494606133988
 21
91.5636002081435
 31
0.0
  0
LINE
  5
5E7
330
6C
100
AcDbEntity
  8
Spigoli visibili(ISO)
100
AcDbLine
 10
133.7494606133988
 20
266.5636002081436
 30
0.0
 11
133.7494606133988
 21
258.5636002081459
 31
0.0
  0
LINE
  5
5E8
330
6C
100
AcDbEntity
  8
Spigoli visibili(ISO)
100
AcDbLine
 10
353.7494606133988
 20
266.5636002081436
 30
0.0
 11
353.7494606133988
 21
258.5636002081459
 31
0.0
  0
LINE
  5
5E9
330
6C
100
AcDbEntity
  8
Spigoli visibili(ISO)
100
AcDbLine
 10
239.0265386988783
 20
179.0079620119973
 30
0.0
 11
239.0265386988783
 21
176.9525256037126
 31
0.0
  0
LINE
  5
5EA
330
6C
100
AcDbEntity
  8
Spigoli visibili(ISO)
100
AcDbLine
 10
239.0265386988783
 20
176.9525256037126
 30
0.0
 11
248.4723825279195
 21
176.9525256037126
 31
0.0
  0
LINE
  5
5EB
330
6C
100
AcDbEntity
  8
Spigoli visibili(ISO)
100
AcDbLine
 10
248.4723825279195
 20
176.9525256037126
 30
0.0
 11
248.4723825279195
 21
179.0079620119973
 31
0.0
  0
ARC
  5
5EC
330
6C
100
AcDbEntity
  8
Spigoli visibili(ISO)
100
AcDbCircle
 10
243.7494606133989
 20
174.0636002081459
 30
0.0
 40
6.297229219360831
100
AcDbArc
 50
56.63298703076817
 51
123.3670129692316
  0
LINE
  5
5ED
330
6C
100
AcDbEntity
  8
Spigoli visibili(ISO)
100
AcDbLine
 10
247.2129366840473
 20
179.3228234729653
 30
0.0
 11
248.7872439888875
 21
179.3228234729653
 31
0.0
  0
LINE
  5
5EE
330
6C
100
AcDbEntity
  8
Spigoli visibili(ISO)
100
AcDbLine
 10
248.7872439888875
 20
179.3228234729653
 30
0.0
 11
248.7872439888875
 21
176.6376641427446
 31
0.0
  0
LINE
  5
5EF
330
6C
100
AcDbEntity
  8
Spigoli visibili(ISO)
100
AcDbLine
 10
240.3816704849505
 20
179.0079620119971
 30
0.0
 11
239.0265386988783
 21
179.0079620119973
 31
0.0
  0
ARC
  5
5F0
330
6C
100
AcDbEntity
  8
Spigoli visibili(ISO)
100
AcDbCircle
 10
243.7494606133989
 20
174.0636002081459
 30
0.0
 40
5.982367758392788
100
AcDbArc
 50
55.73975587356039
 51
124.2602441264415
  0
LINE
  5
5F1
330
6C
100
AcDbEntity
  8
Spigoli visibili(ISO)
100
AcDbLine
 10
248.4723825279195
 20
179.0079620119973
 30
0.0
 11
247.117250741847
 21
179.0079620119973
 31
0.0
  0
LINE
  5
5F2
330
6C
100
AcDbEntity
  8
Spigoli visibili(ISO)
100
AcDbLine
 10
248.7872439888875
 20
176.6376641427446
 30
0.0
 11
238.7116772379102
 21
176.6376641427446
 31
0.0
  0
LINE
  5
5F3
330
6C
100
AcDbEntity
  8
Spigoli visibili(ISO)
100
AcDbLine
 10
238.7116772379102
 20
176.6376641427446
 30
0.0
 11
238.7116772379102
 21
179.3228234729653
 31
0.0
  0
LINE
  5
5F4
330
6C
100
AcDbEntity
  8
Spigoli visibili(ISO)
100
AcDbLine
 10
238.7116772379102
 20
179.3228234729653
 30
0.0
 11
240.2859845427504
 21
179.3228234729653
 31
0.0
  0
LINE
  5
5F5
330
6C
100
AcDbEntity
  8
Spigoli visibili(ISO)
100
AcDbLine
 10
239.0265386988783
 20
182.3228442641541
 30
0.0
 11
239.0265386988783
 21
180.2674078558694
 31
0.0
  0
LINE
  5
5F6
330
6C
100
AcDbEntity
  8
Spigoli visibili(ISO)
100
AcDbLine
 10
239.0265386988783
 20
180.2674078558694
 30
0.0
 11
240.0136026235927
 21
180.2674078558693
 31
0.0
  0
ARC
  5
5F7
330
6C
100
AcDbEntity
  8
Spigoli visibili(ISO)
100
AcDbCircle
 10
243.7494606133989
 20
174.0636002081459
 30
0.0
 40
7.24181360226496
100
AcDbArc
 50
58.94415723480264
 51
121.0558427651977
  0
LINE
  5
5F8
330
6C
100
AcDbEntity
  8
Spigoli visibili(ISO)
100
AcDbLine
 10
248.7872439888875
 20
182.6377057251221
 30
0.0
 11
248.7872439888875
 21
179.9525463949014
 31
0.0
  0
LINE
  5
5F9
330
6C
100
AcDbEntity
  8
Spigoli visibili(ISO)
100
AcDbLine
 10
248.7872439888875
 20
179.9525463949014
 30
0.0
 11
247.3967854929944
 21
179.9525463949013
 31
0.0
  0
ARC
  5
5FA
330
6C
100
AcDbEntity
  8
Spigoli visibili(ISO)
100
AcDbCircle
 10
243.7494606133989
 20
174.0636002081459
 30
0.0
 40
6.926952141296913
100
AcDbArc
 50
58.22795377165281
 51
121.7720462283476
  0
LINE
  5
5FB
330
6C
100
AcDbEntity
  8
Spigoli visibili(ISO)
100
AcDbLine
 10
248.4723825279195
 20
182.3228442641541
 30
0.0
 11
239.0265386988783
 21
182.3228442641541
 31
0.0
  0
LINE
  5
5FC
330
6C
100
AcDbEntity
  8
Spigoli visibili(ISO)
100
AcDbLine
 10
248.4723825279195
 20
180.2674078558694
 30
0.0
 11
248.4723825279195
 21
182.3228442641541
 31
0.0
  0
LINE
  5
5FD
330
6C
100
AcDbEntity
  8
Spigoli visibili(ISO)
100
AcDbLine
 10
247.4853186032049
 20
180.2674078558693
 30
0.0
 11
248.4723825279195
 21
180.2674078558694
 31
0.0
  0
LINE
  5
5FE
330
6C
100
AcDbEntity
  8
Spigoli visibili(ISO)
100
AcDbLine
 10
240.1021357338033
 20
179.9525463949013
 30
0.0
 11
238.7116772379102
 21
179.9525463949014
 31
0.0
  0
LINE
  5
5FF
330
6C
100
AcDbEntity
  8
Spigoli visibili(ISO)
100
AcDbLine
 10
238.7116772379102
 20
179.9525463949014
 30
0.0
 11
238.7116772379102
 21
182.6377057251221
 31
0.0
  0
LINE
  5
600
330
6C
100
AcDbEntity
  8
Spigoli visibili(ISO)
100
AcDbLine
 10
238.7116772379102
 20
182.6377057251221
 30
0.0
 11
248.7872439888875
 21
182.6377057251221
 31
0.0
  0
LINE
  5
601
330
6C
100
AcDbEntity
  8
Spigoli visibili(ISO)
100
AcDbLine
 10
326.9994606133989
 20
227.4667399289604
 30
0.0
 11
326.9994606133989
 21
164.0708504949155
 31
0.0
  0
LINE
  5
602
330
6C
100
AcDbEntity
  8
Spigoli visibili(ISO)
100
AcDbLine
 10
326.9994606133989
 20
146.4975996052492
 30
0.0
 11
326.9994606133989
 21
121.5636002081458
 31
0.0
  0
ARC
  5
603
330
6C
100
AcDbEntity
  8
Spigoli visibili(ISO)
100
AcDbCircle
 10
318.7494606133989
 20
121.5636002081458
 30
0.0
 40
8.249999999999992
100
AcDbArc
 50
180.0
 51
0.0
  0
LINE
  5
604
330
6C
100
AcDbEntity
  8
Spigoli visibili(ISO)
100
AcDbLine
 10
310.4994606133989
 20
121.5636002081458
 30
0.0
 11
310.4994606133989
 21
145.8771299365442
 31
0.0
  0
LINE
  5
605
330
6C
100
AcDbEntity
  8
Spigoli visibili(ISO)
100
AcDbLine
 10
310.4994606133989
 20
164.6913201636205
 30
0.0
 11
310.4994606133989
 21
227.4667399289603
 31
0.0
  0
LINE
  5
606
330
6C
100
AcDbEntity
  8
Spigoli visibili(ISO)
100
AcDbLine
 10
176.9994606133988
 20
227.4667399289604
 30
0.0
 11
176.9994606133988
 21
164.3810853292684
 31
0.0
  0
LINE
  5
607
330
6C
100
AcDbEntity
  8
Spigoli visibili(ISO)
100
AcDbLine
 10
176.9994606133988
 20
146.1873647708972
 30
0.0
 11
176.9994606133988
 21
121.5636002081458
 31
0.0
  0
ARC
  5
608
330
6C
100
AcDbEntity
  8
Spigoli visibili(ISO)
100
AcDbCircle
 10
168.7494606133988
 20
121.5636002081458
 30
0.0
 40
8.250000000000001
100
AcDbArc
 50
180.0
 51
0.0
  0
LINE
  5
609
330
6C
100
AcDbEntity
  8
Spigoli visibili(ISO)
100
AcDbLine
 10
160.4994606133988
 20
121.5636002081458
 30
0.0
 11
160.4994606133988
 21
146.1873647708971
 31
0.0
  0
LINE
  5
60A
330
6C
100
AcDbEntity
  8
Spigoli visibili(ISO)
100
AcDbLine
 10
160.4994606133988
 20
164.3810853292684
 30
0.0
 11
160.4994606133988
 21
227.4667399289604
 31
0.0
  0
LINE
  5
60B
330
6C
100
AcDbEntity
  8
Spigoli visibili(ISO)
100
AcDbLine
 10
353.7494606133988
 20
99.56360020814589
 30
0.0
 11
353.7494606133988
 21
258.5636002081459
 31
0.0
  0
LINE
  5
60C
330
6C
100
AcDbEntity
  8
Spigoli visibili(ISO)
100
AcDbLine
 10
133.7494606133988
 20
258.5636002081459
 30
0.0
 11
133.7494606133988
 21
99.56360020814592
 31
0.0
  0
CIRCLE
  5
60D
330
6C
100
AcDbEntity
  8
Spigoli visibili(ISO)
100
AcDbCircle
 10
318.2121181180227
 20
155.2842250500869
 30
0.0
 40
6.999999999999997
  0
CIRCLE
  5
60E
330
6C
100
AcDbEntity
  8
Spigoli visibili(ISO)
100
AcDbCircle
 10
318.2121181180227
 20
155.2842250500866
 30
0.0
 40
7.999999999999994
  0
CIRCLE
  5
60F
330
6C
100
AcDbEntity
  8
Spigoli visibili(ISO)
100
AcDbCircle
 10
318.7494606133988
 20
236.5636002081501
 30
0.0
 40
7.000000000000008
  0
CIRCLE
  5
610
330
6C
100
AcDbEntity
  8
Spigoli visibili(ISO)
100
AcDbCircle
 10
318.7494606133988
 20
236.5636002081499
 30
0.0
 40
8.000000000000007
  0
CIRCLE
  5
611
330
6C
100
AcDbEntity
  8
Spigoli visibili(ISO)
100
AcDbCircle
 10
168.7494606133988
 20
155.2842250500871
 30
0.0
 40
7.000000000000001
  0
CIRCLE
  5
612
330
6C
100
AcDbEntity
  8
Spigoli visibili(ISO)
100
AcDbCircle
 10
168.7494606133988
 20
155.2842250500868
 30
0.0
 40
8.0
  0
CIRCLE
  5
613
330
6C
100
AcDbEntity
  8
Spigoli visibili(ISO)
100
AcDbCircle
 10
168.7494606133989
 20
236.5636002081504
 30
0.0
 40
6.999999999999998
  0
CIRCLE
  5
614
330
6C
100
AcDbEntity
  8
Spigoli visibili(ISO)
100
AcDbCircle
 10
168.7494606133989
 20
236.5636002081501
 30
0.0
 40
7.999999999999997
  0
LINE
  5
615
330
6C
100
AcDbEntity
  8
Spigoli visibili(ISO)
100
AcDbLine
 10
306.2090062787282
 20
148.3542243485252
 30
0.0
 11
318.2121181180225
 21
141.4242165060855
 31
0.0
  0
LINE
  5
616
330
6C
100
AcDbEntity
  8
Spigoli visibili(ISO)
100
AcDbLine
 10
318.2121181180227
 20
141.4242165060855
 30
0.0
 11
330.215229957317
 21
148.3542243485252
 31
0.0
  0
LINE
  5
617
330
6C
100
AcDbEntity
  8
Spigoli visibili(ISO)
100
AcDbLine
 10
330.215229957317
 20
148.3542243485252
 30
0.0
 11
330.215229957317
 21
162.2142210000773
 31
0.0
  0
LINE
  5
618
330
6C
100
AcDbEntity
  8
Spigoli visibili(ISO)
100
AcDbLine
 10
330.215229957317
 20
162.2142210000773
 30
0.0
 11
318.2121181180227
 21
169.144228842517
 31
0.0
  0
LINE
  5
619
330
6C
100
AcDbEntity
  8
Spigoli visibili(ISO)
100
AcDbLine
 10
318.2121181180225
 20
169.144228842517
 30
0.0
 11
306.2090062787282
 21
162.2142210000773
 31
0.0
  0
LINE
  5
61A
330
6C
100
AcDbEntity
  8
Spigoli visibili(ISO)
100
AcDbLine
 10
306.2090062787282
 20
162.2142210000773
 30
0.0
 11
306.2090062787282
 21
148.3542243485252
 31
0.0
  0
CIRCLE
  5
61B
330
6C
100
AcDbEntity
  8
Spigoli visibili(ISO)
100
AcDbCircle
 10
318.2121181180226
 20
155.2842250500851
 30
0.0
 40
11.99999999999996
  0
LINE
  5
61C
330
6C
100
AcDbEntity
  8
Spigoli visibili(ISO)
100
AcDbLine
 10
318.7494606133989
 20
222.7036084837876
 30
0.0
 11
330.7525724526933
 21
229.6335972929
 31
0.0
  0
LINE
  5
61D
330
6C
100
AcDbEntity
  8
Spigoli visibili(ISO)
100
AcDbLine
 10
306.7463487741044
 20
229.6335972929
 30
0.0
 11
318.7494606133989
 21
222.7036084837876
 31
0.0
  0
LINE
  5
61E
330
6C
100
AcDbEntity
  8
Spigoli visibili(ISO)
100
AcDbLine
 10
306.7463487741044
 20
243.4935933259191
 30
0.0
 11
306.7463487741044
 21
229.6335972929
 31
0.0
  0
LINE
  5
61F
330
6C
100
AcDbEntity
  8
Spigoli visibili(ISO)
100
AcDbLine
 10
318.7494606133988
 20
250.4236011683588
 30
0.0
 11
306.7463487741044
 21
243.4935933259191
 31
0.0
  0
LINE
  5
620
330
6C
100
AcDbEntity
  8
Spigoli visibili(ISO)
100
AcDbLine
 10
330.7525724526933
 20
243.4935933259191
 30
0.0
 11
318.7494606133989
 21
250.4236011683588
 31
0.0
  0
LINE
  5
621
330
6C
100
AcDbEntity
  8
Spigoli visibili(ISO)
100
AcDbLine
 10
330.7525724526933
 20
229.6335972929
 30
0.0
 11
330.7525724526933
 21
243.4935933259191
 31
0.0
  0
CIRCLE
  5
622
330
6C
100
AcDbEntity
  8
Spigoli visibili(ISO)
100
AcDbCircle
 10
318.7494606133989
 20
236.5636002081484
 30
0.0
 40
12.0
  0
LINE
  5
623
330
6C
100
AcDbEntity
  8
Spigoli visibili(ISO)
100
AcDbLine
 10
180.7525724526932
 20
162.2142257516443
 30
0.0
 11
168.7494606133989
 21
169.144233594084
 31
0.0
  0
LINE
  5
624
330
6C
100
AcDbEntity
  8
Spigoli visibili(ISO)
100
AcDbLine
 10
168.7494606133987
 20
169.144233594084
 30
0.0
 11
156.7463487741044
 21
162.2142257516443
 31
0.0
  0
LINE
  5
625
330
6C
100
AcDbEntity
  8
Spigoli visibili(ISO)
100
AcDbLine
 10
156.7463487741044
 20
162.2142257516443
 30
0.0
 11
156.7463487741044
 21
148.3542291000923
 31
0.0
  0
LINE
  5
626
330
6C
100
AcDbEntity
  8
Spigoli visibili(ISO)
100
AcDbLine
 10
156.7463487741044
 20
148.3542291000923
 30
0.0
 11
168.7494606133987
 21
141.4242212576525
 31
0.0
  0
LINE
  5
627
330
6C
100
AcDbEntity
  8
Spigoli visibili(ISO)
100
AcDbLine
 10
168.7494606133989
 20
141.4242212576525
 30
0.0
 11
180.7525724526932
 21
148.3542291000923
 31
0.0
  0
LINE
  5
628
330
6C
100
AcDbEntity
  8
Spigoli visibili(ISO)
100
AcDbLine
 10
180.7525724526932
 20
148.3542291000923
 30
0.0
 11
180.7525724526932
 21
162.2142257516443
 31
0.0
  0
CIRCLE
  5
629
330
6C
100
AcDbEntity
  8
Spigoli visibili(ISO)
100
AcDbCircle
 10
168.7494606133988
 20
155.2842250500851
 30
0.0
 40
11.99999999999997
  0
LINE
  5
62A
330
6C
100
AcDbEntity
  8
Spigoli visibili(ISO)
100
AcDbLine
 10
180.7525724526933
 20
243.4936009097077
 30
0.0
 11
168.749460613399
 21
250.4236087521473
 31
0.0
  0
LINE
  5
62B
330
6C
100
AcDbEntity
  8
Spigoli visibili(ISO)
100
AcDbLine
 10
168.7494606133988
 20
250.4236087521473
 30
0.0
 11
156.7463487741045
 21
243.4936009097077
 31
0.0
  0
LINE
  5
62C
330
6C
100
AcDbEntity
  8
Spigoli visibili(ISO)
100
AcDbLine
 10
156.7463487741045
 20
243.4936009097077
 30
0.0
 11
156.7463487741045
 21
229.6336042581556
 31
0.0
  0
LINE
  5
62D
330
6C
100
AcDbEntity
  8
Spigoli visibili(ISO)
100
AcDbLine
 10
156.7463487741045
 20
229.6336042581556
 30
0.0
 11
168.7494606133988
 21
222.7035964157159
 31
0.0
  0
LINE
  5
62E
330
6C
100
AcDbEntity
  8
Spigoli visibili(ISO)
100
AcDbLine
 10
168.749460613399
 20
222.7035964157159
 30
0.0
 11
180.7525724526933
 21
229.6336042581556
 31
0.0
  0
LINE
  5
62F
330
6C
100
AcDbEntity
  8
Spigoli visibili(ISO)
100
AcDbLine
 10
180.7525724526933
 20
229.6336042581556
 30
0.0
 11
180.7525724526933
 21
243.4936009097077
 31
0.0
  0
CIRCLE
  5
630
330
6C
100
AcDbEntity
  8
Spigoli visibili(ISO)
100
AcDbCircle
 10
168.7494606133989
 20
236.5636002081485
 30
0.0
 40
11.99999999999997
  0
ARC
  5
631
330
6C
100
AcDbEntity
  8
Spigoli visibili(ISO)
100
AcDbCircle
 10
318.2121181180227
 20
155.2842250500652
 30
0.0
 40
15.04797705375892
100
AcDbArc
 50
54.27079524055267
 51
120.8330216644217
  0
ARC
  5
632
330
6C
100
AcDbEntity
  8
Spigoli visibili(ISO)
100
AcDbCircle
 10
318.2121181180226
 20
155.2842250500773
 30
0.0
 40
14.69852294624106
100
AcDbArc
 50
54.72687645163155
 51
121.6496179931895
  0
ARC
  5
633
330
6C
100
AcDbEntity
  8
Spigoli visibili(ISO)
100
AcDbCircle
 10
318.2121181180226
 20
155.2842250500776
 30
0.0
 40
13.69
100
AcDbArc
 50
91.25629002464116
 51
118.7707830260483
  0
ARC
  5
634
330
6C
100
AcDbEntity
  8
Spigoli visibili(ISO)
100
AcDbCircle
 10
318.2121181180226
 20
155.2842250500777
 30
0.0
 40
13.68999999999997
100
AcDbArc
 50
61.22921697395138
 51
88.74370997535853
  0
ARC
  5
635
330
6C
100
AcDbEntity
  8
Spigoli visibili(ISO)
100
AcDbCircle
 10
318.7494606133989
 20
236.5636002081286
 30
0.0
 40
15.04797705375891
100
AcDbArc
 50
236.7532049049587
 51
303.2467950950415
  0
ARC
  5
636
330
6C
100
AcDbEntity
  8
Spigoli visibili(ISO)
100
AcDbCircle
 10
318.7494606133989
 20
236.5636002081406
 30
0.0
 40
14.69852294624103
100
AcDbArc
 50
235.8555740106122
 51
304.1444259893876
  0
ARC
  5
637
330
6C
100
AcDbEntity
  8
Spigoli visibili(ISO)
100
AcDbCircle
 10
318.7494606133989
 20
236.563600208141
 30
0.0
 40
13.68999999999997
100
AcDbArc
 50
241.2292169739512
 51
268.743709975358
  0
ARC
  5
638
330
6C
100
AcDbEntity
  8
Spigoli visibili(ISO)
100
AcDbCircle
 10
318.7494606133989
 20
236.563600208141
 30
0.0
 40
13.68999999999995
100
AcDbArc
 50
271.2562900246419
 51
298.770783026049
  0
ARC
  5
639
330
6C
100
AcDbEntity
  8
Spigoli visibili(ISO)
100
AcDbCircle
 10
168.7494606133988
 20
155.2842250500654
 30
0.0
 40
15.04797705375893
100
AcDbArc
 50
56.75320490495857
 51
123.2467950950416
  0
ARC
  5
63A
330
6C
100
AcDbEntity
  8
Spigoli visibili(ISO)
100
AcDbCircle
 10
168.7494606133988
 20
155.2842250500776
 30
0.0
 40
14.69852294624107
100
AcDbArc
 50
55.85557401061241
 51
124.1444259893879
  0
ARC
  5
63B
330
6C
100
AcDbEntity
  8
Spigoli visibili(ISO)
100
AcDbCircle
 10
168.7494606133988
 20
155.2842250500778
 30
0.0
 40
13.69000000000002
100
AcDbArc
 50
91.25629002464249
 51
118.7707830260493
  0
ARC
  5
63C
330
6C
100
AcDbEntity
  8
Spigoli visibili(ISO)
100
AcDbCircle
 10
168.7494606133988
 20
155.2842250500779
 30
0.0
 40
13.68999999999998
100
AcDbArc
 50
61.22921697395057
 51
88.74370997535732
  0
ARC
  5
63D
330
6C
100
AcDbEntity
  8
Spigoli visibili(ISO)
100
AcDbCircle
 10
168.7494606133989
 20
236.5636002081287
 30
0.0
 40
15.04797705375894
100
AcDbArc
 50
236.7532049049581
 51
303.2467950950412
  0
ARC
  5
63E
330
6C
100
AcDbEntity
  8
Spigoli visibili(ISO)
100
AcDbCircle
 10
168.7494606133989
 20
236.5636002081408
 30
0.0
 40
14.69852294624106
100
AcDbArc
 50
235.8555740106115
 51
304.1444259893872
  0
ARC
  5
63F
330
6C
100
AcDbEntity
  8
Spigoli visibili(ISO)
100
AcDbCircle
 10
168.7494606133989
 20
236.5636002081411
 30
0.0
 40
13.68999999999995
100
AcDbArc
 50
241.2292169739508
 51
268.7437099753577
  0
ARC
  5
640
330
6C
100
AcDbEntity
  8
Spigoli visibili(ISO)
100
AcDbCircle
 10
168.7494606133989
 20
236.5636002081411
 30
0.0
 40
13.68999999999996
100
AcDbArc
 50
271.2562900246422
 51
298.770783026049
  0
LINE
  5
641
330
6C
100
AcDbEntity
  8
Spigoli visibili(ISO)
100
AcDbLine
 10
310.4994606133989
 20
131.2842250500777
 30
0.0
 11
326.9994606133989
 21
131.2842250500777
 31
0.0
  0
LINE
  5
642
330
6C
100
AcDbEntity
  8
Spigoli visibili(ISO)
100
AcDbLine
 10
310.4994606133989
 20
167.284225050079
 30
0.0
 11
314.9905036159449
 21
167.284225050079
 31
0.0
  0
LINE
  5
643
330
6C
100
AcDbEntity
  8
Spigoli visibili(ISO)
100
AcDbLine
 10
321.4337326201003
 20
167.284225050079
 30
0.0
 11
326.9994606133989
 21
167.284225050079
 31
0.0
  0
LINE
  5
644
330
6C
100
AcDbEntity
  8
Spigoli visibili(ISO)
100
AcDbLine
 10
326.9994606133989
 20
224.5636002081423
 30
0.0
 11
321.9710751154768
 21
224.5636002081423
 31
0.0
  0
LINE
  5
645
330
6C
100
AcDbEntity
  8
Spigoli visibili(ISO)
100
AcDbLine
 10
315.527846111321
 20
224.5636002081423
 30
0.0
 11
310.4994606133989
 21
224.5636002081423
 31
0.0
  0
LINE
  5
646
330
6C
100
AcDbEntity
  8
Spigoli visibili(ISO)
100
AcDbLine
 10
160.4994606133988
 20
131.2842250500778
 30
0.0
 11
176.9994606133988
 21
131.2842250500778
 31
0.0
  0
LINE
  5
647
330
6C
100
AcDbEntity
  8
Spigoli visibili(ISO)
100
AcDbLine
 10
160.4994606133988
 20
167.2842250500791
 30
0.0
 11
165.5278461113207
 21
167.2842250500791
 31
0.0
  0
LINE
  5
648
330
6C
100
AcDbEntity
  8
Spigoli visibili(ISO)
100
AcDbLine
 10
171.9710751154771
 20
167.2842250500791
 30
0.0
 11
176.9994606133988
 21
167.2842250500791
 31
0.0
  0
LINE
  5
649
330
6C
100
AcDbEntity
  8
Spigoli visibili(ISO)
100
AcDbLine
 10
176.9994606133988
 20
224.5636002081425
 30
0.0
 11
171.9710751154769
 21
224.5636002081425
 31
0.0
  0
LINE
  5
64A
330
6C
100
AcDbEntity
  8
Spigoli visibili(ISO)
100
AcDbLine
 10
165.5278461113208
 20
224.5636002081425
 30
0.0
 11
160.4994606133988
 21
224.5636002081425
 31
0.0
  0
ENDSEC
  0
SECTION
  2
OBJECTS
  0
DICTIONARY
  5
C
330
0
100
AcDbDictionary
281
     1
  3
ACAD_CIP_PREVIOUS_PRODUCT_INFO
350
64B
  3
ACAD_COLOR
350
63
  3
ACAD_GROUP
350
D
  3
ACAD_LAYOUT
350
62
  3
ACAD_MATERIAL
350
10
  3
ACAD_MLEADERSTYLE
350
66
  3
ACAD_MLINESTYLE
350
5F
  3
ACAD_PLOTSETTINGS
350
61
  3
ACAD_PLOTSTYLENAME
350
E
  3
ACAD_SCALELIST
350
42
  3
ACAD_TABLESTYLE
350
64
  3
ACAD_VISUALSTYLE
350
29
  3
ACDB_RECOMPOSE_DATA
350
6D0
  3
AcDbVariableDictionary
350
64E
  3
AcmDictionary
350
682
  3
AMG
350
659
  3
AMGSNAPSETTINGS
350
6C2
  3
DWGPROPS
350
6D1
  0
XRECORD
  5
64B
102
{ACAD_REACTORS
330
C
102
}
330
C
100
AcDbXrecord
280
     1
300
AMECH_PP
300
2012
300
PDSP_F_S
  0
DICTIONARY
  5
63
102
{ACAD_REACTORS
330
C
102
}
330
C
100
AcDbDictionary
281
     1
  0
DICTIONARY
  5
D
102
{ACAD_REACTORS
330
C
102
}
330
C
100
AcDbDictionary
281
     1
  0
DICTIONARY
  5
62
102
{ACAD_REACTORS
330
C
102
}
330
C
100
AcDbDictionary
281
     1
  3
Layout1
350
6B
  3
Layout2
350
73
  3
Model
350
6F
  0
DICTIONARY
  5
10
102
{ACAD_REACTORS
330
C
102
}
330
C
100
AcDbDictionary
281
     1
  3
ByBlock
350
19
  3
ByLayer
350
11
  3
Global
350
21
  0
DICTIONARY
  5
66
102
{ACAD_REACTORS
330
C
102
}
330
C
100
AcDbDictionary
281
     1
  3
Standard
350
67
  0
DICTIONARY
  5
5F
102
{ACAD_REACTORS
330
C
102
}
330
C
100
AcDbDictionary
281
     1
  3
Standard
350
60
  0
DICTIONARY
  5
61
102
{ACAD_REACTORS
330
C
102
}
330
C
100
AcDbDictionary
281
     1
  0
ACDBDICTIONARYWDFLT
  5
E
102
{ACAD_REACTORS
330
C
102
}
330
C
100
AcDbDictionary
281
     1
  3
Normal
350
F
100
AcDbDictionaryWithDefault
340
F
  0
DICTIONARY
  5
42
102
{ACAD_REACTORS
330
C
102
}
330
C
100
AcDbDictionary
281
     1
  3
A0
350
43
  3
A1
350
44
  3
A2
350
45
  3
A3
350
46
  3
A4
350
47
  3
A5
350
48
  3
A6
350
49
  3
A7
350
4A
  3
A8
350
4B
  3
A9
350
4C
  3
B0
350
4D
  3
B1
350
4E
  3
B2
350
4F
  3
B3
350
50
  3
B4
350
51
  3
B5
350
52
  3
B6
350
53
  0
DICTIONARY
  5
64
102
{ACAD_REACTORS
330
C
102
}
330
C
100
AcDbDictionary
281
     1
  3
Standard
350
65
  0
DICTIONARY
  5
29
102
{ACAD_REACTORS
330
C
102
}
330
C
100
AcDbDictionary
281
     1
  3
2dWireframe
350
2F
  3
Basic
350
2E
  3
Brighten
350
35
  3
ColorChange
350
39
  3
Conceptual
350
32
  3
Dim
350
34
  3
EdgeColorOff
350
41
  3
Facepattern
350
38
  3
Flat
350
2A
  3
FlatWithEdges
350
2B
  3
Gouraud
350
2C
  3
GouraudWithEdges
350
2D
  3
Hidden
350
31
  3
JitterOff
350
3F
  3
Linepattern
350
37
  3
OverhangOff
350
40
  3
Realistic
350
33
  3
Shaded
350
3E
  3
Shaded with edges
350
3D
  3
Shades of Gray
350
3A
  3
Sketchy
350
3B
  3
Thicken
350
36
  3
Wireframe
350
30
  3
X-Ray
350
3C
  0
XRECORD
  5
6D0
102
{ACAD_REACTORS
330
C
102
}
330
C
100
AcDbXrecord
280
     1
 90
        1
330
65
  0
DICTIONARY
  5
64E
102
{ACAD_REACTORS
330
C
102
}
330
C
100
AcDbDictionary
281
     1
  3
CANNOSCALE
350
651
  3
CMLEADERSTYLE
350
650
  3
CTABLESTYLE
350
64F
  3
DIMASSOC
350
6CA
  3
HIDETEXT
350
6C9
  3
INDEXCTL
350
6C8
  3
LAYEREVAL
350
6C5
  3
LAYERNOTIFY
350
6C6
  3
LIGHTINGUNITS
350
6C4
  3
MSLTSCALE
350
6C3
  3
SORTENTS
350
6C7
  3
XCLIPFRAME
350
6CB
  0
DICTIONARY
  5
682
102
{ACAD_REACTORS
330
C
102
}
330
C
100
AcDbDictionary
281
     1
  3
AcmStdDictionary
350
68B
  0
DICTIONARY
  5
659
102
{ACAD_REACTORS
330
C
102
}
330
C
100
AcDbDictionary
281
     1
  0
DICTIONARY
  5
6C2
102
{ACAD_REACTORS
330
C
102
}
330
C
100
AcDbDictionary
281
     1
  0
XRECORD
  5
6D1
102
{ACAD_REACTORS
330
C
102
}
330
C
100
AcDbXrecord
280
     1
  1
DWGPROPS COOKIE
  2

  3

  4
PaoLor
  6

  7

  8
amenegon
  9

300
Responsabile=
301
Società=
302
Categoria=
303
Numero parte=256-P
304
Descrizione=
305
Progetto=
306
Progettista=PaoLor
307
Ingegnere=
308
Autorità=
309
Centro gestione costi=
 40
0.0001915162037037
 41
2456401.36000397
 42
2456401.365997177
  1

 90
       16
300
Fornitore=
300
Stato utente=
300
Stato progetto=In corso
300
Verificato da=
300
Progett. approvata da=
300
Prod. approvata da=
  0
LAYOUT
  5
6B
102
{ACAD_XDICTIONARY
360
707
102
}
102
{ACAD_REACTORS
330
62
102
}
330
62
100
AcDbPlotSettings
  1

  2

  4

  6

 40
0.0
 41
0.0
 42
0.0
 43
0.0
 44
0.0
 45
0.0
 46
0.0
 47
0.0
 48
0.0
 49
0.0
140
0.0
141
0.0
142
1.0
143
1.0
 70
   688
 72
     0
 73
     0
 74
     5
  7

 75
    16
147
1.0
148
0.0
149
0.0
100
AcDbLayout
  1
Layout1
 70
     1
 71
     1
 10
0.0
 20
0.0
 11
840.0
 21
594.0
 12
0.0
 22
0.0
 32
0.0
 14
0.0
 24
0.0
 34
0.0
 15
840.0
 25
594.0
 35
0.0
146
0.0
 13
0.0
 23
0.0
 33
0.0
 16
1.0
 26
0.0
 36
0.0
 17
0.0
 27
1.0
 37
0.0
 76
     0
330
68
  0
LAYOUT
  5
73
102
{ACAD_XDICTIONARY
360
70B
102
}
102
{ACAD_REACTORS
330
62
102
}
330
62
100
AcDbPlotSettings
  1

  2

  4

  6

 40
0.0
 41
0.0
 42
0.0
 43
0.0
 44
0.0
 45
0.0
 46
0.0
 47
0.0
 48
0.0
 49
0.0
140
0.0
141
0.0
142
1.0
143
1.0
 70
   688
 72
     0
 73
     0
 74
     5
  7

 75
    16
147
1.0
148
0.0
149
0.0
100
AcDbLayout
  1
Layout2
 70
     1
 71
     2
 10
0.0
 20
0.0
 11
12.0
 21
9.0
 12
0.0
 22
0.0
 32
0.0
 14
0.0
 24
0.0
 34
0.0
 15
0.0
 25
0.0
 35
0.0
146
0.0
 13
0.0
 23
0.0
 33
0.0
 16
1.0
 26
0.0
 36
0.0
 17
0.0
 27
1.0
 37
0.0
 76
     0
330
70
  0
LAYOUT
  5
6F
102
{ACAD_XDICTIONARY
360
709
102
}
102
{ACAD_REACTORS
330
62
102
}
330
62
100
AcDbPlotSettings
  1

  2

  4

  6

 40
0.0
 41
0.0
 42
0.0
 43
0.0
 44
0.0
 45
0.0
 46
0.0
 47
0.0
 48
0.0
 49
0.0
140
0.0
141
0.0
142
1.0
143
1.0
 70
  1712
 72
     0
 73
     0
 74
     0
  7

 75
     0
147
1.0
148
0.0
149
0.0
100
AcDbLayout
  1
Model
 70
     1
 71
     0
 10
0.0
 20
0.0
 11
12.0
 21
9.0
 12
0.0
 22
0.0
 32
0.0
 14
0.0
 24
0.0
 34
0.0
 15
0.0
 25
0.0
 35
0.0
146
0.0
 13
0.0
 23
0.0
 33
0.0
 16
1.0
 26
0.0
 36
0.0
 17
0.0
 27
1.0
 37
0.0
 76
     0
330
6C
331
57
  0
MATERIAL
  5
19
102
{ACAD_XDICTIONARY
360
1A
102
}
102
{ACAD_REACTORS
330
10
102
}
330
10
100
AcDbMaterial
  1
ByBlock
 72
     0
 43
0.0208333333333333
 43
0.0
 43
0.0
 43
0.0
 43
0.0
 43
0.0208333333333333
 43
0.0
 43
0.0
 43
0.0
 43
0.0
 43
1.0
 43
0.0
 43
0.0
 43
0.0
 43
0.0
 43
1.0
 77
     0
 47
0.0208333333333333
 47
0.0
 47
0.0
 47
0.0
 47
0.0
 47
0.0208333333333333
 47
0.0
 47
0.0
 47
0.0
 47
0.0
 47
1.0
 47
0.0
 47
0.0
 47
0.0
 47
0.0
 47
1.0
171
     0
 49
0.0208333333333333
 49
0.0
 49
0.0
 49
0.0
 49
0.0
 49
0.0208333333333333
 49
0.0
 49
0.0
 49
0.0
 49
0.0
 49
1.0
 49
0.0
 49
0.0
 49
0.0
 49
0.0
 49
1.0
175
     0
142
0.0208333333333333
142
0.0
142
0.0
142
0.0
142
0.0
142
0.0208333333333333
142
0.0
142
0.0
142
0.0
142
0.0
142
1.0
142
0.0
142
0.0
142
0.0
142
0.0
142
1.0
179
     0
144
0.0208333333333333
144
0.0
144
0.0
144
0.0
144
0.0
144
0.0208333333333333
144
0.0
144
0.0
144
0.0
144
0.0
144
1.0
144
0.0
144
0.0
144
0.0
144
0.0
144
1.0
147
0.0208333333333333
147
0.0
147
0.0
147
0.0
147
0.0
147
0.0208333333333333
147
0.0
147
0.0
147
0.0
147
0.0
147
1.0
147
0.0
147
0.0
147
0.0
147
0.0
147
1.0
  0
MATERIAL
  5
11
102
{ACAD_XDICTIONARY
360
12
102
}
102
{ACAD_REACTORS
330
10
102
}
330
10
100
AcDbMaterial
  1
ByLayer
 72
     0
 43
0.0208333333333333
 43
0.0
 43
0.0
 43
0.0
 43
0.0
 43
0.0208333333333333
 43
0.0
 43
0.0
 43
0.0
 43
0.0
 43
1.0
 43
0.0
 43
0.0
 43
0.0
 43
0.0
 43
1.0
 77
     0
 47
0.0208333333333333
 47
0.0
 47
0.0
 47
0.0
 47
0.0
 47
0.0208333333333333
 47
0.0
 47
0.0
 47
0.0
 47
0.0
 47
1.0
 47
0.0
 47
0.0
 47
0.0
 47
0.0
 47
1.0
171
     0
 49
0.0208333333333333
 49
0.0
 49
0.0
 49
0.0
 49
0.0
 49
0.0208333333333333
 49
0.0
 49
0.0
 49
0.0
 49
0.0
 49
1.0
 49
0.0
 49
0.0
 49
0.0
 49
0.0
 49
1.0
175
     0
142
0.0208333333333333
142
0.0
142
0.0
142
0.0
142
0.0
142
0.0208333333333333
142
0.0
142
0.0
142
0.0
142
0.0
142
1.0
142
0.0
142
0.0
142
0.0
142
0.0
142
1.0
179
     0
144
0.0208333333333333
144
0.0
144
0.0
144
0.0
144
0.0
144
0.0208333333333333
144
0.0
144
0.0
144
0.0
144
0.0
144
1.0
144
0.0
144
0.0
144
0.0
144
0.0
144
1.0
147
0.0208333333333333
147
0.0
147
0.0
147
0.0
147
0.0
147
0.0208333333333333
147
0.0
147
0.0
147
0.0
147
0.0
147
1.0
147
0.0
147
0.0
147
0.0
147
0.0
147
1.0
  0
MATERIAL
  5
21
102
{ACAD_XDICTIONARY
360
22
102
}
102
{ACAD_REACTORS
330
10
102
}
330
10
100
AcDbMaterial
  1
Global
 72
     0
 43
0.0208333333333333
 43
0.0
 43
0.0
 43
0.0
 43
0.0
 43
0.0208333333333333
 43
0.0
 43
0.0
 43
0.0
 43
0.0
 43
1.0
 43
0.0
 43
0.0
 43
0.0
 43
0.0
 43
1.0
 77
     0
 47
0.0208333333333333
 47
0.0
 47
0.0
 47
0.0
 47
0.0
 47
0.0208333333333333
 47
0.0
 47
0.0
 47
0.0
 47
0.0
 47
1.0
 47
0.0
 47
0.0
 47
0.0
 47
0.0
 47
1.0
171
     0
 49
0.0208333333333333
 49
0.0
 49
0.0
 49
0.0
 49
0.0
 49
0.0208333333333333
 49
0.0
 49
0.0
 49
0.0
 49
0.0
 49
1.0
 49
0.0
 49
0.0
 49
0.0
 49
0.0
 49
1.0
175
     0
142
0.0208333333333333
142
0.0
142
0.0
142
0.0
142
0.0
142
0.0208333333333333
142
0.0
142
0.0
142
0.0
142
0.0
142
1.0
142
0.0
142
0.0
142
0.0
142
0.0
142
1.0
179
     0
144
0.0208333333333333
144
0.0
144
0.0
144
0.0
144
0.0
144
0.0208333333333333
144
0.0
144
0.0
144
0.0
144
0.0
144
1.0
144
0.0
144
0.0
144
0.0
144
0.0
144
1.0
147
0.0208333333333333
147
0.0
147
0.0
147
0.0
147
0.0
147
0.0208333333333333
147
0.0
147
0.0
147
0.0
147
0.0
147
1.0
147
0.0
147
0.0
147
0.0
147
0.0
147
1.0
  0
MLEADERSTYLE
  5
67
102
{ACAD_XDICTIONARY
360
6CE
102
}
102
{ACAD_REACTORS
330
66
102
}
330
66
100
AcDbMLeaderStyle
170
     2
171
     1
172
     0
 90
        2
 40
0.0
 41
0.0
173
     1
 91
-1056964608
340
5B
 92
       -2
290
     1
 42
0.09
291
     1
 43
0.36
  3
Standard
 44
0.18
300

342
55
174
     1
178
     6
175
     1
176
     0
 93
-1056964608
 45
0.18
292
     0
297
     0
 46
0.18
 94
-1056964608
 47
1.0
 49
1.0
140
1.0
293
     1
141
0.0
294
     1
177
     0
142
1.0
295
     0
296
     0
143
0.125
1001
ACAD_MLEADERVER
1070
     2
  0
MLINESTYLE
  5
60
102
{ACAD_REACTORS
330
5F
102
}
330
5F
100
AcDbMlineStyle
  2
STANDARD
 70
     0
  3

 62
   256
 51
90.0
 52
90.0
 71
     2
 49
0.5
 62
   256
  6
BYLAYER
 49
-0.5
 62
   256
  6
BYLAYER
  0
ACDBPLACEHOLDER
  5
F
102
{ACAD_REACTORS
330
E
102
}
330
E
  0
SCALE
  5
43
102
{ACAD_REACTORS
330
42
102
}
330
42
100
AcDbScale
 70
     0
300
1:1
140
1.0
141
1.0
290
     1
  0
SCALE
  5
44
102
{ACAD_REACTORS
330
42
102
}
330
42
100
AcDbScale
 70
     0
300
1/128" = 1'-0"
140
0.0078125
141
12.0
290
     0
  0
SCALE
  5
45
102
{ACAD_REACTORS
330
42
102
}
330
42
100
AcDbScale
 70
     0
300
1/64" = 1'-0"
140
0.015625
141
12.0
290
     0
  0
SCALE
  5
46
102
{ACAD_REACTORS
330
42
102
}
330
42
100
AcDbScale
 70
     0
300
1/32" = 1'-0"
140
0.03125
141
12.0
290
     0
  0
SCALE
  5
47
102
{ACAD_REACTORS
330
42
102
}
330
42
100
AcDbScale
 70
     0
300
1/16" = 1'-0"
140
0.0625
141
12.0
290
     0
  0
SCALE
  5
48
102
{ACAD_REACTORS
330
42
102
}
330
42
100
AcDbScale
 70
     0
300
3/32" = 1'-0"
140
0.09375
141
12.0
290
     0
  0
SCALE
  5
49
102
{ACAD_REACTORS
330
42
102
}
330
42
100
AcDbScale
 70
     0
300
1/8" = 1'-0"
140
0.125
141
12.0
290
     0
  0
SCALE
  5
4A
102
{ACAD_REACTORS
330
42
102
}
330
42
100
AcDbScale
 70
     0
300
3/16" = 1'-0"
140
0.1875
141
12.0
290
     0
  0
SCALE
  5
4B
102
{ACAD_REACTORS
330
42
102
}
330
42
100
AcDbScale
 70
     0
300
1/4" = 1'-0"
140
0.25
141
12.0
290
     0
  0
SCALE
  5
4C
102
{ACAD_REACTORS
330
42
102
}
330
42
100
AcDbScale
 70
     0
300
3/8" = 1'-0"
140
0.375
141
12.0
290
     0
  0
SCALE
  5
4D
102
{ACAD_REACTORS
330
42
102
}
330
42
100
AcDbScale
 70
     0
300
1/2" = 1'-0"
140
0.5
141
12.0
290
     0
  0
SCALE
  5
4E
102
{ACAD_REACTORS
330
42
102
}
330
42
100
AcDbScale
 70
     0
300
3/4" = 1'-0"
140
0.75
141
12.0
290
     0
  0
SCALE
  5
4F
102
{ACAD_REACTORS
330
42
102
}
330
42
100
AcDbScale
 70
     0
300
1" = 1'-0"
140
1.0
141
12.0
290
     0
  0
SCALE
  5
50
102
{ACAD_REACTORS
330
42
102
}
330
42
100
AcDbScale
 70
     0
300
1-1/2" = 1'-0"
140
1.5
141
12.0
290
     0
  0
SCALE
  5
51
102
{ACAD_REACTORS
330
42
102
}
330
42
100
AcDbScale
 70
     0
300
3" = 1'-0"
140
3.0
141
12.0
290
     0
  0
SCALE
  5
52
102
{ACAD_REACTORS
330
42
102
}
330
42
100
AcDbScale
 70
     0
300
6" = 1'-0"
140
6.0
141
12.0
290
     0
  0
SCALE
  5
53
102
{ACAD_REACTORS
330
42
102
}
330
42
100
AcDbScale
 70
     0
300
1'-0" = 1'-0"
140
12.0
141
12.0
290
     0
  0
TABLESTYLE
  5
65
102
{ACAD_XDICTIONARY
360
6CC
102
}
102
{ACAD_REACTORS
330
64
102
}
330
64
100
AcDbTableStyle
  3
Standard
 70
     0
 71
     0
 40
0.06
 41
0.06
280
     0
281
     0
  7
Standard
140
0.18
170
     2
 62
     0
 63
     7
283
     0
274
    -2
284
     1
 64
     0
275
    -2
285
     1
 65
     0
276
    -2
286
     1
 66
     0
277
    -2
287
     1
 67
     0
278
    -2
288
     1
 68
     0
279
    -2
289
     1
 69
     0
  7
Standard
140
0.25
170
     5
 62
     0
 63
     7
283
     0
274
    -2
284
     1
 64
     0
275
    -2
285
     1
 65
     0
276
    -2
286
     1
 66
     0
277
    -2
287
     1
 67
     0
278
    -2
288
     1
 68
     0
279
    -2
289
     1
 69
     0
  7
Standard
140
0.18
170
     5
 62
     0
 63
     7
283
     0
274
    -2
284
     1
 64
     0
275
    -2
285
     1
 65
     0
276
    -2
286
     1
 66
     0
277
    -2
287
     1
 67
     0
278
    -2
288
     1
 68
     0
279
    -2
289
     1
 69
     0
  0
VISUALSTYLE
  5
2F
102
{ACAD_XDICTIONARY
360
6DF
102
}
102
{ACAD_REACTORS
330
29
102
}
330
29
100
AcDbVisualStyle
  2
2dWireframe
 70
     4
 71
     0
 72
     2
 73
     0
 90
        0
 40
-0.6
 41
-30.0
 62
     5
 63
     7
 74
     1
 91
        4
 64
     7
 65
   257
 75
     1
175
     1
 42
1.0
 92
        0
 66
   257
 43
1.0
 76
     1
 77
     6
 78
     2
 67
     7
 79
     5
170
     0
171
     0
290
     0
174
     0
 93
        1
 44
0.0
173
     0
291
     0
 45
0.0
1001
ACAD
1000
AcDbSavedByObjectVersion
1070
     0
  0
VISUALSTYLE
  5
2E
102
{ACAD_XDICTIONARY
360
6DD
102
}
102
{ACAD_REACTORS
330
29
102
}
330
29
100
AcDbVisualStyle
  2
Basic
 70
     7
 71
     1
 72
     0
 73
     1
 90
        0
 40
-0.6
 41
-30.0
 62
     5
 63
     7
 74
     0
 91
        4
 64
     7
 65
   257
 75
     1
175
     1
 42
1.0
 92
        8
 66
     7
 43
1.0
 76
     1
 77
     6
 78
     2
 67
     7
 79
     5
170
     0
171
     0
290
     0
174
     0
 93
        1
 44
0.0
173
     0
291
     1
 45
0.0
1001
ACAD
1000
AcDbSavedByObjectVersion
1070
     0
  0
VISUALSTYLE
  5
35
102
{ACAD_XDICTIONARY
360
6EB
102
}
102
{ACAD_REACTORS
330
29
102
}
330
29
100
AcDbVisualStyle
  2
Brighten
 70
    12
 71
     2
 72
     2
 73
     0
 90
        0
 40
-0.6
 41
-30.0
 62
     5
 63
     7
 74
     1
 91
        4
 64
     7
 65
   257
 75
     1
175
     1
 42
1.0
 92
        8
 66
     7
 43
1.0
 76
     1
 77
     6
 78
     2
 67
     7
 79
     5
170
     0
171
     0
290
     0
174
     0
 93
        1
 44
50.0
173
     0
291
     1
 45
0.0
1001
ACAD
1000
AcDbSavedByObjectVersion
1070
     0
  0
VISUALSTYLE
  5
39
102
{ACAD_XDICTIONARY
360
6F3
102
}
102
{ACAD_REACTORS
330
29
102
}
330
29
100
AcDbVisualStyle
  2
ColorChange
 70
    16
 71
     2
 72
     2
 73
     3
 90
        0
 40
-0.6
 41
-30.0
 62
     5
 63
     8
 74
     1
 91
        4
 64
     7
 65
   257
 75
     1
175
     1
 42
1.0
 92
        8
 66
     8
 43
1.0
 76
     1
 77
     6
 78
     2
 67
     7
 79
     5
170
     0
171
     0
290
     0
174
     0
 93
        1
 44
0.0
173
     0
291
     1
 45
0.0
1001
ACAD
1000
AcDbSavedByObjectVersion
1070
     0
  0
VISUALSTYLE
  5
32
102
{ACAD_XDICTIONARY
360
6E5
102
}
102
{ACAD_REACTORS
330
29
102
}
330
29
100
AcDbVisualStyle
  2
Conceptual
 70
     9
 71
     3
 72
     2
 73
     0
 90
        0
 40
-0.6
 41
-30.0
 62
     5
 63
     7
 74
     2
 91
        2
 64
     7
 65
   257
 75
     1
175
     1
 42
179.0
 92
        8
 66
     7
 43
1.0
 76
     1
 77
     6
 78
     2
 67
     7
 79
     3
170
     0
171
     0
290
     0
174
     0
 93
        1
 44
0.0
173
     0
291
     0
 45
0.0
1001
ACAD
1000
AcDbSavedByObjectVersion
1070
     0
  0
VISUALSTYLE
  5
34
102
{ACAD_XDICTIONARY
360
6E9
102
}
102
{ACAD_REACTORS
330
29
102
}
330
29
100
AcDbVisualStyle
  2
Dim
 70
    11
 71
     2
 72
     2
 73
     0
 90
        0
 40
-0.6
 41
-30.0
 62
     5
 63
     7
 74
     1
 91
        4
 64
     7
 65
   257
 75
     1
175
     1
 42
1.0
 92
        8
 66
     7
 43
1.0
 76
     1
 77
     6
 78
     2
 67
     7
 79
     5
170
     0
171
     0
290
     0
174
     0
 93
        1
 44
-50.0
173
     0
291
     1
 45
0.0
1001
ACAD
1000
AcDbSavedByObjectVersion
1070
     0
  0
VISUALSTYLE
  5
41
102
{ACAD_XDICTIONARY
360
703
102
}
102
{ACAD_REACTORS
330
29
102
}
330
29
100
AcDbVisualStyle
  2
EdgeColorOff
 70
    22
 71
     2
 72
     2
 73
     0
 90
        0
 40
-0.6
 41
-30.0
 62
     5
 63
     7
 74
     1
 91
        4
 64
     7
 65
   257
 75
     1
175
     1
 42
1.0
 92
        8
 66
     7
 43
1.0
 76
     1
 77
     6
 78
     2
 67
     7
 79
     5
170
     0
171
     0
290
     0
174
     0
 93
        1
 44
0.0
173
     0
291
     1
 45
0.0
1001
ACAD
1000
AcDbSavedByObjectVersion
1070
     0
  0
VISUALSTYLE
  5
38
102
{ACAD_XDICTIONARY
360
6F1
102
}
102
{ACAD_REACTORS
330
29
102
}
330
29
100
AcDbVisualStyle
  2
Facepattern
 70
    15
 71
     2
 72
     2
 73
     0
 90
        0
 40
-0.6
 41
-30.0
 62
     5
 63
     7
 74
     1
 91
        4
 64
     7
 65
   257
 75
     1
175
     1
 42
1.0
 92
        8
 66
     7
 43
1.0
 76
     1
 77
     6
 78
     2
 67
     7
 79
     5
170
     0
171
     0
290
     0
174
     0
 93
        1
 44
0.0
173
     0
291
     1
 45
0.0
1001
ACAD
1000
AcDbSavedByObjectVersion
1070
     0
  0
VISUALSTYLE
  5
2A
102
{ACAD_XDICTIONARY
360
6D5
102
}
102
{ACAD_REACTORS
330
29
102
}
330
29
100
AcDbVisualStyle
  2
Flat
 70
     0
 71
     2
 72
     1
 73
     1
 90
        2
 40
-0.6
 41
30.0
 62
     5
 63
     7
 74
     0
 91
        0
 64
     7
 65
   257
 75
     1
175
     1
 42
1.0
 92
        8
 66
     7
 43
1.0
 76
     1
 77
     6
 78
     2
 67
     7
 79
     5
170
     0
171
     0
290
     0
174
     0
 93
       13
 44
0.0
173
     0
291
     1
 45
0.0
1001
ACAD
1000
AcDbSavedByObjectVersion
1070
     0
  0
VISUALSTYLE
  5
2B
102
{ACAD_XDICTIONARY
360
6D7
102
}
102
{ACAD_REACTORS
330
29
102
}
330
29
100
AcDbVisualStyle
  2
FlatWithEdges
 70
     1
 71
     2
 72
     1
 73
     1
 90
        2
 40
-0.6
 41
30.0
 62
     5
 63
     7
 74
     1
 91
        0
 64
     7
 65
   257
 75
     1
175
     1
 42
1.0
 92
        0
 66
   257
 43
1.0
 76
     1
 77
     6
 78
     2
 67
     7
 79
     5
170
     0
171
     0
290
     0
174
     0
 93
       13
 44
0.0
173
     0
291
     1
 45
0.0
1001
ACAD
1000
AcDbSavedByObjectVersion
1070
     0
  0
VISUALSTYLE
  5
2C
102
{ACAD_XDICTIONARY
360
6D9
102
}
102
{ACAD_REACTORS
330
29
102
}
330
29
100
AcDbVisualStyle
  2
Gouraud
 70
     2
 71
     2
 72
     2
 73
     1
 90
        2
 40
-0.6
 41
30.0
 62
     5
 63
     7
 74
     0
 91
        0
 64
     7
 65
   257
 75
     1
175
     1
 42
1.0
 92
        0
 66
     7
 43
1.0
 76
     1
 77
     6
 78
     2
 67
     7
 79
     5
170
     0
171
     0
290
     0
174
     0
 93
       13
 44
0.0
173
     0
291
     1
 45
0.0
1001
ACAD
1000
AcDbSavedByObjectVersion
1070
     0
  0
VISUALSTYLE
  5
2D
102
{ACAD_XDICTIONARY
360
6DB
102
}
102
{ACAD_REACTORS
330
29
102
}
330
29
100
AcDbVisualStyle
  2
GouraudWithEdges
 70
     3
 71
     2
 72
     2
 73
     1
 90
        2
 40
-0.6
 41
30.0
 62
     5
 63
     7
 74
     1
 91
        0
 64
     7
 65
   257
 75
     1
175
     1
 42
1.0
 92
        0
 66
   257
 43
1.0
 76
     1
 77
     6
 78
     2
 67
     7
 79
     5
170
     0
171
     0
290
     0
174
     0
 93
       13
 44
0.0
173
     0
291
     1
 45
0.0
1001
ACAD
1000
AcDbSavedByObjectVersion
1070
     0
  0
VISUALSTYLE
  5
31
102
{ACAD_XDICTIONARY
360
6E3
102
}
102
{ACAD_REACTORS
330
29
102
}
330
29
100
AcDbVisualStyle
  2
Hidden
 70
     6
 71
     1
 72
     2
 73
     2
 90
        0
 40
-0.6
 41
-30.0
 62
     5
 63
     7
 74
     2
 91
        2
 64
     7
 65
   257
 75
     2
175
     1
 42
40.0
 92
        0
 66
   257
 43
1.0
 76
     1
 77
     6
 78
     2
 67
     7
 79
     3
170
     0
171
     0
290
     0
174
     0
 93
        1
 44
0.0
173
     0
291
     0
 45
0.0
1001
ACAD
1000
AcDbSavedByObjectVersion
1070
     0
  0
VISUALSTYLE
  5
3F
102
{ACAD_XDICTIONARY
360
6FF
102
}
102
{ACAD_REACTORS
330
29
102
}
330
29
100
AcDbVisualStyle
  2
JitterOff
 70
    20
 71
     2
 72
     2
 73
     0
 90
        0
 40
-0.6
 41
-30.0
 62
     5
 63
     7
 74
     1
 91
        4
 64
     7
 65
   257
 75
     1
175
     1
 42
1.0
 92
       10
 66
     7
 43
1.0
 76
     1
 77
     6
 78
     2
 67
     7
 79
     5
170
     0
171
     0
290
     0
174
     0
 93
        1
 44
0.0
173
     0
291
     1
 45
0.0
1001
ACAD
1000
AcDbSavedByObjectVersion
1070
     0
  0
VISUALSTYLE
  5
37
102
{ACAD_XDICTIONARY
360
6EF
102
}
102
{ACAD_REACTORS
330
29
102
}
330
29
100
AcDbVisualStyle
  2
Linepattern
 70
    14
 71
     2
 72
     2
 73
     0
 90
        0
 40
-0.6
 41
-30.0
 62
     5
 63
     7
 74
     1
 91
        4
 64
     7
 65
   257
 75
     7
175
     7
 42
1.0
 92
        8
 66
     7
 43
1.0
 76
     1
 77
     6
 78
     2
 67
     7
 79
     5
170
     0
171
     0
290
     0
174
     0
 93
        1
 44
0.0
173
     0
291
     1
 45
0.0
1001
ACAD
1000
AcDbSavedByObjectVersion
1070
     0
  0
VISUALSTYLE
  5
40
102
{ACAD_XDICTIONARY
360
701
102
}
102
{ACAD_REACTORS
330
29
102
}
330
29
100
AcDbVisualStyle
  2
OverhangOff
 70
    21
 71
     2
 72
     2
 73
     0
 90
        0
 40
-0.6
 41
-30.0
 62
     5
 63
     7
 74
     1
 91
        4
 64
     7
 65
   257
 75
     1
175
     1
 42
1.0
 92
        9
 66
     7
 43
1.0
 76
     1
 77
     6
 78
     2
 67
     7
 79
     5
170
     0
171
     0
290
     0
174
     0
 93
        1
 44
0.0
173
     0
291
     1
 45
0.0
1001
ACAD
1000
AcDbSavedByObjectVersion
1070
     0
  0
VISUALSTYLE
  5
33
102
{ACAD_XDICTIONARY
360
6E7
102
}
102
{ACAD_REACTORS
330
29
102
}
330
29
100
AcDbVisualStyle
  2
Realistic
 70
     8
 71
     2
 72
     3
 73
     0
 90
        2
 40
-0.6
 41
30.0
 62
     5
 63
     7
 74
     0
 91
        0
 64
     7
 65
   257
 75
     1
175
     1
 42
1.0
 92
        8
 66
   257
 43
1.0
 76
     1
 77
     6
 78
     2
 67
     7
 79
     3
170
     0
171
     0
290
     0
174
     0
 93
       13
 44
0.0
173
     0
291
     0
 45
0.0
1001
ACAD
1000
AcDbSavedByObjectVersion
1070
     0
  0
VISUALSTYLE
  5
3E
102
{ACAD_XDICTIONARY
360
6FD
102
}
102
{ACAD_REACTORS
330
29
102
}
330
29
100
AcDbVisualStyle
  2
Shaded
 70
    27
 71
     2
 72
     2
 73
     1
 90
        2
 40
-0.6
 41
30.0
 62
     5
 63
     7
 74
     0
 91
        4
 64
     7
 65
   257
 75
     1
175
     1
 42
1.0
 92
        8
 66
   257
 43
1.0
 76
     1
 77
     6
 78
     2
 67
     8
 79
     3
170
     0
171
     0
290
     0
174
     0
 93
        5
 44
0.0
173
     0
291
     0
 45
0.0
1001
ACAD
1000
AcDbSavedByObjectVersion
1070
     0
  0
VISUALSTYLE
  5
3D
102
{ACAD_XDICTIONARY
360
6FB
102
}
102
{ACAD_REACTORS
330
29
102
}
330
29
100
AcDbVisualStyle
  2
Shaded with edges
 70
    26
 71
     2
 72
     2
 73
     1
 90
        2
 40
-0.6
 41
30.0
 62
     5
 63
     7
 74
     1
 91
       10
 64
     7
 65
   257
 75
     2
175
     1
 42
1.0
 92
        8
 66
   257
 43
1.0
 76
     1
 77
     6
 78
     2
 67
     7
 79
     3
170
     0
171
     0
290
     0
174
     0
 93
        5
 44
0.0
173
     0
291
     0
 45
0.0
1001
ACAD
1000
AcDbSavedByObjectVersion
1070
     0
  0
VISUALSTYLE
  5
3A
102
{ACAD_XDICTIONARY
360
6F5
102
}
102
{ACAD_REACTORS
330
29
102
}
330
29
100
AcDbVisualStyle
  2
Shades of Gray
 70
    23
 71
     2
 72
     2
 73
     3
 90
        0
 40
-0.6
 41
-30.0
 62
     5
 63
     7
 74
     2
 91
        2
 64
     7
 65
     7
 75
     1
175
     1
 42
40.0
 92
        8
 66
     7
 43
1.0
 76
     1
 77
     6
 78
     2
 67
     7
 79
     3
170
     0
171
     0
290
     0
174
     0
 93
        1
 44
0.0
173
     0
291
     0
 45
0.0
1001
ACAD
1000
AcDbSavedByObjectVersion
1070
     0
  0
VISUALSTYLE
  5
3B
102
{ACAD_XDICTIONARY
360
6F7
102
}
102
{ACAD_REACTORS
330
29
102
}
330
29
100
AcDbVisualStyle
  2
Sketchy
 70
    24
 71
     1
 72
     2
 73
     2
 90
        0
 40
-0.6
 41
-30.0
 62
     5
 63
     7
 74
     2
 91
        2
 64
     7
 65
     7
 75
     1
175
     1
 42
40.0
 92
       11
 66
     7
 43
1.0
 76
     1
 77
     6
 78
     2
 67
     7
 79
     6
170
     0
171
     0
290
     0
174
     0
 93
        1
 44
0.0
173
     0
291
     0
 45
0.0
1001
ACAD
1000
AcDbSavedByObjectVersion
1070
     0
  0
VISUALSTYLE
  5
36
102
{ACAD_XDICTIONARY
360
6ED
102
}
102
{ACAD_REACTORS
330
29
102
}
330
29
100
AcDbVisualStyle
  2
Thicken
 70
    13
 71
     2
 72
     2
 73
     0
 90
        0
 40
-0.6
 41
-30.0
 62
     5
 63
     7
 74
     1
 91
        4
 64
     7
 65
   257
 75
     1
175
     1
 42
1.0
 92
       12
 66
     7
 43
1.0
 76
     1
 77
     6
 78
     2
 67
     7
 79
     5
170
     0
171
     0
290
     0
174
     0
 93
        1
 44
0.0
173
     0
291
     1
 45
0.0
1001
ACAD
1000
AcDbSavedByObjectVersion
1070
     0
  0
VISUALSTYLE
  5
30
102
{ACAD_XDICTIONARY
360
6E1
102
}
102
{ACAD_REACTORS
330
29
102
}
330
29
100
AcDbVisualStyle
  2
Wireframe
 70
     5
 71
     0
 72
     2
 73
     0
 90
        0
 40
-0.6
 41
-30.0
 62
     5
 63
     7
 74
     1
 91
        4
 64
     7
 65
   257
 75
     1
175
     1
 42
1.0
 92
        0
 66
   257
 43
1.0
 76
     1
 77
     6
 78
     2
 67
     7
 79
     3
170
     0
171
     0
290
     0
174
     0
 93
        1
 44
0.0
173
     0
291
     0
 45
0.0
1001
ACAD
1000
AcDbSavedByObjectVersion
1070
     0
  0
VISUALSTYLE
  5
3C
102
{ACAD_XDICTIONARY
360
6F9
102
}
102
{ACAD_REACTORS
330
29
102
}
330
29
100
AcDbVisualStyle
  2
X-Ray
 70
    25
 71
     2
 72
     2
 73
     1
 90
        1
 40
0.5
 41
-30.0
 62
     5
 63
     7
 74
     1
 91
        0
 64
     7
 65
   257
 75
     1
175
     1
 42
1.0
 92
        8
 66
     7
 43
1.0
 76
     1
 77
     6
 78
     2
 67
     7
 79
     3
170
     0
171
     0
290
     0
174
     0
 93
       13
 44
0.0
173
     0
291
     0
 45
0.0
1001
ACAD
1000
AcDbSavedByObjectVersion
1070
     0
  0
DICTIONARYVAR
  5
651
102
{ACAD_REACTORS
330
64E
102
}
330
64E
100
DictionaryVariables
280
     0
  1
1:1
  0
DICTIONARYVAR
  5
650
102
{ACAD_REACTORS
330
64E
102
}
330
64E
100
DictionaryVariables
280
     0
  1
STANDARD
  0
DICTIONARYVAR
  5
64F
102
{ACAD_REACTORS
330
64E
102
}
330
64E
100
DictionaryVariables
280
     0
  1
STANDARD
  0
DICTIONARYVAR
  5
6CA
102
{ACAD_REACTORS
330
64E
102
}
330
64E
100
DictionaryVariables
280
     0
  1
1
  0
DICTIONARYVAR
  5
6C9
102
{ACAD_REACTORS
330
64E
102
}
330
64E
100
DictionaryVariables
280
     0
  1
1
  0
DICTIONARYVAR
  5
6C8
102
{ACAD_REACTORS
330
64E
102
}
330
64E
100
DictionaryVariables
280
     0
  1
0
  0
DICTIONARYVAR
  5
6C5
102
{ACAD_REACTORS
330
64E
102
}
330
64E
100
DictionaryVariables
280
     0
  1
0
  0
DICTIONARYVAR
  5
6C6
102
{ACAD_REACTORS
330
64E
102
}
330
64E
100
DictionaryVariables
280
     0
  1
0
  0
DICTIONARYVAR
  5
6C4
102
{ACAD_REACTORS
330
64E
102
}
330
64E
100
DictionaryVariables
280
     0
  1
2
  0
DICTIONARYVAR
  5
6C3
102
{ACAD_REACTORS
330
64E
102
}
330
64E
100
DictionaryVariables
280
     0
  1
1
  0
DICTIONARYVAR
  5
6C7
102
{ACAD_REACTORS
330
64E
102
}
330
64E
100
DictionaryVariables
280
     0
  1
127
  0
DICTIONARYVAR
  5
6CB
102
{ACAD_REACTORS
330
64E
102
}
330
64E
100
DictionaryVariables
280
     0
  1
2
  0
DICTIONARY
  5
68B
102
{ACAD_REACTORS
330
682
102
}
330
682
100
AcDbDictionary
281
     1
  0
DICTIONARY
  5
707
330
6B
100
AcDbDictionary
280
     1
281
     1
  3
ACAD_XREC_ROUNDTRIP
360
708
  0
DICTIONARY
  5
70B
330
73
100
AcDbDictionary
280
     1
281
     1
  3
ACAD_XREC_ROUNDTRIP
360
70C
  0
DICTIONARY
  5
709
330
6F
100
AcDbDictionary
280
     1
281
     1
  3
ACAD_XREC_ROUNDTRIP
360
70A
  0
DICTIONARY
  5
1A
330
19
100
AcDbDictionary
280
     1
281
     1
  3
ACAD_XREC_ROUNDTRIP
360
6D3
  3
BUMPTILE
360
1C
  3
DIFFUSETILE
360
1B
  3
OPACITYTILE
360
1F
  3
REFLECTIONTILE
360
1E
  3
REFRACTIONTILE
360
20
  3
SPECULARTILE
360
1D
  0
DICTIONARY
  5
12
330
11
100
AcDbDictionary
280
     1
281
     1
  3
ACAD_XREC_ROUNDTRIP
360
6D2
  3
BUMPTILE
360
14
  3
DIFFUSETILE
360
13
  3
FBXASSET
360
183
  3
OPACITYTILE
360
17
  3
REFLECTIONTILE
360
16
  3
REFRACTIONTILE
360
18
  3
SPECULARTILE
360
15
  0
DICTIONARY
  5
22
330
21
100
AcDbDictionary
280
     1
281
     1
  3
ACAD_XREC_ROUNDTRIP
360
6D4
  3
BUMPTILE
360
24
  3
DIFFUSETILE
360
23
  3
OPACITYTILE
360
27
  3
REFLECTIONTILE
360
26
  3
REFRACTIONTILE
360
28
  3
SPECULARTILE
360
25
  0
DICTIONARY
  5
6CE
330
67
100
AcDbDictionary
280
     1
281
     1
  3
ACAD_XREC_ROUNDTRIP
360
6CF
  0
DICTIONARY
  5
6CC
330
65
100
AcDbDictionary
280
     1
281
     1
  3
ACAD_ROUNDTRIP_2008_TABLESTYLE_CELLSTYLEMAP
360
6CD
  3
ACAD_XREC_ROUNDTRIP
360
705
  0
DICTIONARY
  5
6DF
330
2F
100
AcDbDictionary
280
     1
281
     1
  3
ACAD_XREC_ROUNDTRIP
360
6E0
  0
DICTIONARY
  5
6DD
330
2E
100
AcDbDictionary
280
     1
281
     1
  3
ACAD_XREC_ROUNDTRIP
360
6DE
  0
DICTIONARY
  5
6EB
330
35
100
AcDbDictionary
280
     1
281
     1
  3
ACAD_XREC_ROUNDTRIP
360
6EC
  0
DICTIONARY
  5
6F3
330
39
100
AcDbDictionary
280
     1
281
     1
  3
ACAD_XREC_ROUNDTRIP
360
6F4
  0
DICTIONARY
  5
6E5
330
32
100
AcDbDictionary
280
     1
281
     1
  3
ACAD_XREC_ROUNDTRIP
360
6E6
  0
DICTIONARY
  5
6E9
330
34
100
AcDbDictionary
280
     1
281
     1
  3
ACAD_XREC_ROUNDTRIP
360
6EA
  0
DICTIONARY
  5
703
330
41
100
AcDbDictionary
280
     1
281
     1
  3
ACAD_XREC_ROUNDTRIP
360
704
  0
DICTIONARY
  5
6F1
330
38
100
AcDbDictionary
280
     1
281
     1
  3
ACAD_XREC_ROUNDTRIP
360
6F2
  0
DICTIONARY
  5
6D5
330
2A
100
AcDbDictionary
280
     1
281
     1
  3
ACAD_XREC_ROUNDTRIP
360
6D6
  0
DICTIONARY
  5
6D7
330
2B
100
AcDbDictionary
280
     1
281
     1
  3
ACAD_XREC_ROUNDTRIP
360
6D8
  0
DICTIONARY
  5
6D9
330
2C
100
AcDbDictionary
280
     1
281
     1
  3
ACAD_XREC_ROUNDTRIP
360
6DA
  0
DICTIONARY
  5
6DB
330
2D
100
AcDbDictionary
280
     1
281
     1
  3
ACAD_XREC_ROUNDTRIP
360
6DC
  0
DICTIONARY
  5
6E3
330
31
100
AcDbDictionary
280
     1
281
     1
  3
ACAD_XREC_ROUNDTRIP
360
6E4
  0
DICTIONARY
  5
6FF
330
3F
100
AcDbDictionary
280
     1
281
     1
  3
ACAD_XREC_ROUNDTRIP
360
700
  0
DICTIONARY
  5
6EF
330
37
100
AcDbDictionary
280
     1
281
     1
  3
ACAD_XREC_ROUNDTRIP
360
6F0
  0
DICTIONARY
  5
701
330
40
100
AcDbDictionary
280
     1
281
     1
  3
ACAD_XREC_ROUNDTRIP
360
702
  0
DICTIONARY
  5
6E7
330
33
100
AcDbDictionary
280
     1
281
     1
  3
ACAD_XREC_ROUNDTRIP
360
6E8
  0
DICTIONARY
  5
6FD
330
3E
100
AcDbDictionary
280
     1
281
     1
  3
ACAD_XREC_ROUNDTRIP
360
6FE
  0
DICTIONARY
  5
6FB
330
3D
100
AcDbDictionary
280
     1
281
     1
  3
ACAD_XREC_ROUNDTRIP
360
6FC
  0
DICTIONARY
  5
6F5
330
3A
100
AcDbDictionary
280
     1
281
     1
  3
ACAD_XREC_ROUNDTRIP
360
6F6
  0
DICTIONARY
  5
6F7
330
3B
100
AcDbDictionary
280
     1
281
     1
  3
ACAD_XREC_ROUNDTRIP
360
6F8
  0
DICTIONARY
  5
6ED
330
36
100
AcDbDictionary
280
     1
281
     1
  3
ACAD_XREC_ROUNDTRIP
360
6EE
  0
DICTIONARY
  5
6E1
330
30
100
AcDbDictionary
280
     1
281
     1
  3
ACAD_XREC_ROUNDTRIP
360
6E2
  0
DICTIONARY
  5
6F9
330
3C
100
AcDbDictionary
280
     1
281
     1
  3
ACAD_XREC_ROUNDTRIP
360
6FA
  0
XRECORD
  5
708
102
{ACAD_REACTORS
330
707
102
}
330
707
100
AcDbXrecord
280
     1
102
SHADEPLOT
 70
     0
102
SHADEPLOTRESLEVEL
 70
     2
102
SHADEPLOTCUSTOMDPI
 70
   300
  0
XRECORD
  5
70C
102
{ACAD_REACTORS
330
70B
102
}
330
70B
100
AcDbXrecord
280
     1
102
SHADEPLOT
 70
     0
102
SHADEPLOTRESLEVEL
 70
     2
102
SHADEPLOTCUSTOMDPI
 70
   300
  0
XRECORD
  5
70A
102
{ACAD_REACTORS
330
709
102
}
330
709
100
AcDbXrecord
280
     1
102
SHADEPLOT
 70
     0
102
SHADEPLOTRESLEVEL
 70
     2
102
SHADEPLOTCUSTOMDPI
 70
   300
  0
XRECORD
  5
6D3
102
{ACAD_REACTORS
330
1A
102
}
330
1A
100
AcDbXrecord
280
     1
102
MATERIAL
148
0.0
149
0.0
149
0.0
 93
        0
 94
      127
282
     0
 72
     0
 77
     0
171
     0
175
     0
179
     0
273
     0
  0
XRECORD
  5
1C
102
{ACAD_REACTORS
330
1A
102
}
330
1A
100
AcDbXrecord
280
     1
270
     1
271
     1
  0
XRECORD
  5
1B
102
{ACAD_REACTORS
330
1A
102
}
330
1A
100
AcDbXrecord
280
     1
270
     1
271
     1
  0
XRECORD
  5
1F
102
{ACAD_REACTORS
330
1A
102
}
330
1A
100
AcDbXrecord
280
     1
270
     1
271
     1
  0
XRECORD
  5
1E
102
{ACAD_REACTORS
330
1A
102
}
330
1A
100
AcDbXrecord
280
     1
270
     1
271
     1
  0
XRECORD
  5
20
102
{ACAD_REACTORS
330
1A
102
}
330
1A
100
AcDbXrecord
280
     1
270
     1
271
     1
  0
XRECORD
  5
1D
102
{ACAD_REACTORS
330
1A
102
}
330
1A
100
AcDbXrecord
280
     1
270
     1
271
     1
  0
XRECORD
  5
6D2
102
{ACAD_REACTORS
330
12
102
}
330
12
100
AcDbXrecord
280
     1
102
MATERIAL
148
0.0
149
0.0
149
0.0
 93
        0
 94
      127
282
     0
 72
     0
 77
     0
171
     0
175
     0
179
     0
273
     0
  0
XRECORD
  5
14
102
{ACAD_REACTORS
330
12
102
}
330
12
100
AcDbXrecord
280
     1
270
     1
271
     1
  0
XRECORD
  5
13
102
{ACAD_REACTORS
330
12
102
}
330
12
100
AcDbXrecord
280
     1
270
     1
271
     1
  0
XRECORD
  5
183
102
{ACAD_REACTORS
330
12
102
}
330
12
100
AcDbXrecord
280
     1
 70
     1
 90
1959938040
 71
     1
  1
027F1946-69D0-4C34-AC54-9368793A3C8D
311
504B03040A0000080000CF4492423DEE336E79000000790000001B0000006175746F6465736B2D64657369676E2D7061636B6167652E786D6C3C3F786D6C2076657273696F6E3D22312E302220656E636F64696E673D227574662D3822203F3E3C666F726D6174733E3C666F726D61743E687474703A2F2F736368656D612E
311
6175746F6465736B2E636F6D2F64657369676E2D7061636B6167652F323030393C2F666F726D61743E3C2F666F726D6174733E504B0304140006080800CF449242D486FD9CA0000000F4000000130000005B436F6E74656E745F54797065735D2E786D6C7D8EC10E82300C865F65E91D8A1E8C310C0EEA1BF002731658846E
311
D98AC1B77784ABF1D8FE5FBFBF75BBCE937A534CCEB38643598122B6FEE978D0B0485F9C41B54DDD7D022595594E1A469170414C76A4D9A4D207E29CF43ECE46F218070CC6BECC4078ACAA135ACF422C856C0E68EA1BF5669944DDD7BCDE7B1F8E415D77AECB980613C2E4AC91FC167A2B244592486606FC29C8FD7F045B9A
311
EF7053A7E60B504B0304140006080800CF449242BD283382EB0000007C01000008000000636F72652E786D6C8D90618AC3201085AF22F37731D1C42D6931964DD29E602F206A5369A321EAB2C75FD3A6B0FB6F4198E1F9BE99E1F1E3F774475F6609D6BB1668410019A7BCB66E6C21C50B6E001D055FBC8FBF6C809C9C4C0B
311
AB0C828F8B4FF32629EFA27131ABCE6BB38932041301A97B6E5A08EA6A2659C814B323DC8A59AA9B1C4D415F5D8653B21A3D97589DE7D98B350B88333B0D3B569D703D741D66C3F08EF77BD6E37DDFF51F1D65DD70DEF17285058F767AED578B91D1681015A135260CD3E69334873A3FFA46E881105EAEF63F509AF53FA164
311
5DACABEDDC271640D07CC8E343F072CD22974750B9AEB9891F504B0304140006080800CF44924255019EA25F0000007C00000007000000636E782E786D6C4DCB3B0E80201045D1AD90E915ED2CF8AC45050C11660C8261F98AB1B07AC9C97D42D718D865D3E909258CFD00CCE24AC6E326A164D74DC0B4128928FF32603847
311
2BA13128B1252AC747C6BAB984FC68F0B87FE8960A5C09FE86CFB69FBA01504B0304140006080800CF449242FF7EFD3667010000020300000C0000006662782F636F72652E786D6C8D52ED8E8230107C95A67F2FD0F271464DA939449FE05EA096CA11A125A5253EFE2D1FC6F3628C814033B3B33B3BC076D7B64183B27D6D
311
7486A39062A4B43465ADAB0C7B770ED618ED38B3C6B83F651869D1AA0C8F30E6ACB2C6770B248D764A3B40B529D5028ABE570E23D9C021C3BDFC51AD08857750D15FC24EC88BA854188540431D67BDB36000CD43C627E6E7D3959119E7CCFBBA5CD8BA8469F5B95616F3637A2856697C089222CF83B4283E83CD26DD079B7D
311
BEFFCAA3342F8E2B46463167AE6E6FEEA455C2A912F398464940D3205A7FD3F536813BFAA0D1965246C6F20791EFCA3745BED62E8917BBB3ACC73C022313F16F5B88C8A15E0CE0877046C610E13525FC18340402213B716A6E7B5C001A9474C6A6C094C6DFA941345EC1548AA68B919985CE5303D8EC699FF8459FD73DE003
311
0A5D8135E1E078F26E9CCEE6A94B149DB2C1E0AE481BDB8AE66E6EB6787FDE073D954BD318FB8E9A2CAB92254C32FEBDFC17504B0304140006080800CF449242EF0592467D0000009D0000000B0000006662782F636E782E786D6C4DCCD10A83201805E05791FFDEA5319B811A2E7B905816B2D2703AF6F8B3D1C5AE0EE7E3
311
7044F7D956F4B6F1E58297402F0490F58F3039BF48C869C61C50A7440C21FDCD00F971B3120E06259618F27ED264E731AFA9E8EAFCF3C456DFA82164C02DA70C5F0746B1EE4BAD9BA63654DF7BC319544A54BFA792C7B1FA02504B0304140006080800CF4492426170E59B2B01000014020000310000006662782F39413731
311
443030452D393831352D344535312D414330452D3236363244314142434438352F636F72652E786D6C8D515B6EC32010BC0AE22B55651BFC8A1361A234C90D7A0107488A1283C5A3CAF1BBD48ED4FE45422CECCECC8E76D9EE31DED1B7725E5BD3639A138C9411566A73ED710C97ACC368C799B336FC8161648651F538A531
311
675767E3B4A484354199005963A55A9283F72A6024EEF0E8B1175F6A1CF2210640F85B3E0DE2365C554E7328038E331F1C184073937463BED9AFE9919053B6E96893D5A78666FB037CCBB62D8F74FF7138760D2B662267316AB9D0B5043BFAA2957B552491390B7A7CDA174E0D4149CC4B42AB8CD419ED3E49B7ADE0D07742
311
B784B022C1FF91E2245F24456D42552E76679AC79CB2622E70266D3CDF9F66D463B22EA0D46FE59578C39CE4A4229BB66D6A56CC50180068B6F5A2E9837530E0D5ED0C680A634AC26DCD59917604E1778110D33EF90F504B0304140006080800CF449242E44F6BFB4D01000033030000300000006662782F39413731443030
311
452D393831352D344535312D414330452D3236363244314142434438352F636E782E786D6CD593CD6EC32010845F0571ADFC436345518489D4439FA0875E316C521A0C163F55F3F65D1292E692438F952C64CD0E33AB4F36DF7DCF967C4188C6BB91B2B6A7049CF2DAB8C34873DA371B4A768207EFD39D8D122767186991A9
311
E087E0F352250D7B996D42D51A77AC6280E8735010512E3789F54A5A0C00D76414619E406BD0E466C4B73D045C05C5E944D20790D79777E2A74F5029F2AEA408DE950EC1CB599BEE4C94282B631C69541F30CB56E6E435C463AB65922D6BAF5D0F76FA4D22E5C2B53207434AF948CB4945DDA8458EBCC3A1E03105A4574DE9
311
B400157259AC513221E4EE6CBC7804CFC6A5F550BD06C10774B3F56A1830EC3C133C9919AA430590093415CF3D5B35FDD0B0CD5BBFD9AEF0614F3DDBF63DEF8A5DF0C97B5B2F610C04BF10E55D0297A860BC2BE347F8AA8F681390B50FA73F804400B5F542E796F19FF974E7EF1B7105FC0BC40F504B0304140006080800CF
311
44924239E4D8189B05000076100000340000006662782F39413731443030452D393831352D344535312D414330452D3236363244314142434438352F6F626A656374732E786D6CAD57DB6EDB3810FD1541FB2CC9B29D345E282A1CBB298C6EDAA2468B7D3060D012A570435D4052A9D3AFDF43899225D74EBD8BBEE8C2CB70
311
E6CC990B83B7FB8C5BCF544856E4B7B6EF8E6C8BE65111B33CBDB52B953837B6F5360C4451A8DE32DBCA49466F6D3D6C87412A8AAA3443314D48C5D5D1E8FDDDDF968C684E6D2BE244CA5B5B468F34232EA9541153F9E4C64411374DF6AEEF360B87625341CAC723A125113457D014E339A4588D52FEF077647B61E0E9F930
311
D04FB36A727E9557DB333C9FE552913CFAE9B02331137FBA7C37BE9A3957D3E9C4995E8F7DE7EEFE6EE9F86F26A3C5F562319BBF9BE160A90424194D044DECF03DB0112C0ABC662A0C2A96ABC9D82C310EF2047D66DA537638B6FCC06BD674D619234FA91F15794EA31A2BA051DB6744C7B4A4790C9F332AA1590FA1D1F0D7
311
D738F6A627FADF1CD91FBE0C81FE8E9EA056F7F6DDD7B4D8FD0313E4250C12926A0636581A431BAE8E0E08EF8A829B3926AD8C282A18E116673B41C48B1D62A95E120603319AC9424783B6C00EE185667A481784D1AF797E4ACBA4E25CD3D80EEB28D82256A892B566EC071507EDFBC84027F84AB3E1C618A45E4A6A87B386
311
2237476C6A80B4124E52B81C66EA9D93F191A10B1DA7ABA51D7EB8DFEDD73A764F1F5E8AA2A44269FA805AADE3DAB746C9E8E45FE439BDC13E52E500CA1720FF11A17E50057E136C3FDD4FCD294A905C2685C8E01B6B6439233C46965F3FF577EF2BF0BACD43EF9DC313CED650FD063C8736F47DD983330C9E41F8424C8C69
311
EB8870A48D079603204D128B1718421E4E767B3B5C21CB212B6317E1A10F93A1EE333E03CF8841A2A84FEABD73607994162F48D080AD6624D468C86F143CF8E9A774561F6C969D83F7EAB7D075BE5C7F58572221117D3031BDA409CB9942893BF0A6AFD000F381454FF4E57B216218FA33DEEB3EDE99394A026D8DB9063E6D
311
73BAFE399C3C3820C2BEB4D0E926F8C509304217D69EFC072623CA39C96951B5E7BE5A3F50361A8875B06B267705E65058409A66E6280651A423C14A0D6257ADBAA4E99EB1EEEBEA23186987772F7F91977EF6DA1D726F54F0426C772FDB262D9D84FADB90DB06034F4B01DDEB2069E3DF80BE8D5992541249F004AEDF568B
311
BEEF745A408A68A536D13285FD082E220C695BB9A8D682A09216F996A16E22EE4E1ED0970F480D036A81E7349694275BC679956D13C6518DB61929CFC0F1FFF5DF5559B9255951E5EA8CEC81EAA80E43DD07EC95DF898A1EED705DBF9D3BE4DE98C667C8A06BC909AC06AE1D8DDFDCFBB3E9B5733D5B8E9CE9623275E68BAB
311
A9339B5CDFBC994DE693C5CDB2F553A34918B4A5A61FD1F0124A5B500966DCF77585F83149C00E1F88929BF74D78B6EFAF2B17BD70E0610FEA65B7711E3FA3EFA3F1AF051C569E14B4CA4A4E339A2BA263E8417FF02F047DC64099667C9591945E20E5D3FBF5913118B960DF671DEFF4FBD15E33BAD0017952887AACB25D4E
311
183FDA983648BA659E1AFC5A9F74EFA6D0B4BFFACF38069DA92C388B9107632BA5454615B2E10545486454827AFD9E3E36778F0B763F371DA2223B4E5B4D1E099A642E1116A05615A9E1B8F5079A3ADD57DDDA28B7EE131E2653D81638736BA349572CA2D2DDA140EB56A8160E2EF53B7934FE244F397AED6653F7DFEDD2D8
311
0C4A72B7E492FEC9D8D5A4706300D24889BE010D11BC532B1306B56E663EFA4F86B7EA5844E17357A9CE96C340674C7D0C42B431CADC16D0C43C99A3F708D4D7CDF2DD7ACD00918B6E59AF92A091EA2822D2FAA6A0F5332ACD979F3D7428D6EA9355F22A852F2F97E4080A32573AC0C122B0C2C82C890255177F6E3E8B0237
311
D92C639B7B06E2454556E56C333797606BFD882B6DBC4146A0FA2E2237E3913FDED47700732DD9EE88A42E89E51306E04EC13A74073E07199B8B228A4F33D1ADF334FE47B45C2D2D53CDA6106A38D24FA81A11741B39B51038FA1EA9C3A4BFA07CF51AE0D54BA18240031FFE0B504B0304140006080000CF44924200000000
311
0000000000000000350000006662782F39413731443030452D393831352D344535312D414330452D3236363244314142434438352F76657274696365732E62696E504B0304140006080800CF449242F270F1330600000004000000360000006662782F39413731443030452D393831352D344535312D414330452D32363632
311
44314142434438352F747269616E676C65732E62696E636660600000504B0304140006080000CF449242000000000000000000000000370000006662782F39413731443030452D393831352D344535312D414330452D3236363244314142434438352F617474726962757465732E62696E504B0304140006080800CF449242
311
D5987DFC8F00000041010000360000006662782F39413731443030452D393831352D344535312D414330452D3236363244314142434438352F6469726563746F72792E786D6C858F410EC2201045AF4266AF15DDB800BA74E7C21B903225242D6328188F2FA5C4183471359997F9FF81E89FF3C41E1816475E02DF1F80A11F
311
C8386F25A438EECEC07A250251FC3803E6F58C12560C4AD840E95E91C151A72936F496F35732D860FE635F62C8F2DA16B505C545B74125BAA2FA9E05D7CC053D063734D5C7665FD55B6B8D15D5E9BFEAFD8490FFA45E504B0304140006080800CF449242AE831D1AFD000000A00100003B0000006662782F39413731443030
311
452D393831352D344535312D414330452D3236363244314142434438352F7265736F75726365732F636F72652E786D6C8D50ED6A8330147D15B97F473451576C892953D727D80B84786B436B22F9187BFCC5EA60FB3708B997F3C13D1C7EFE9A1FD9273AAFAD6981E5143234CA8EDA4C2DC470250D6467C19DB5E1970C3223
311
676C618541F0C9D9B8EC90B226A009093576C41D94DE63804C3DD2D28257379C652E63480A7FCF17A9EE72C29CE5894E3AC17D702940B61D597F100EBD8D4EA1E7C5C60A1EA31E778D1ED34D7DD5E8405CEAF7E1509703A986AE23F530BC92E3B1EEC9B1EFFAB78ED5DD7039F062350B1EF4FC93513994014710256515A135
311
61CD076D4E557AEC85B213A5BC58E57F4C7119FF698ADA84AADCE36E360F82A5204F42F062ED2B8D679969AEDD8A6F504B010214000A0000080000CF4492423DEE336E79000000790000001B00000000000000000000000000000000006175746F6465736B2D64657369676E2D7061636B6167652E786D6C504B0102140014
311
0006080800CF449242D486FD9CA0000000F40000001300000000000000000000000000B20000005B436F6E74656E745F54797065735D2E786D6C504B01021400140006080800CF449242BD283382EB0000007C010000080000000000000000000000000083010000636F72652E786D6C504B01021400140006080800CF4492
311
4255019EA25F0000007C000000070000000000000000000000000094020000636E782E786D6C504B01021400140006080800CF449242FF7EFD3667010000020300000C00000000000000000000000000180300006662782F636F72652E786D6C504B01021400140006080800CF449242EF0592467D0000009D0000000B0000
311
0000000000000000000000A90400006662782F636E782E786D6C504B01021400140006080800CF4492426170E59B2B0100001402000031000000000000000000000000004F0500006662782F39413731443030452D393831352D344535312D414330452D3236363244314142434438352F636F72652E786D6C504B01021400
311
140006080800CF449242E44F6BFB4D010000330300003000000000000000000000000000C90600006662782F39413731443030452D393831352D344535312D414330452D3236363244314142434438352F636E782E786D6C504B01021400140006080800CF44924239E4D8189B050000761000003400000000000000000000
311
000000640800006662782F39413731443030452D393831352D344535312D414330452D3236363244314142434438352F6F626A656374732E786D6C504B01021400140006080000CF4492420000000000000000000000003500000000000000000000000000510E00006662782F39413731443030452D393831352D34453531
311
2D414330452D3236363244314142434438352F76657274696365732E62696E504B01021400140006080800CF449242F270F13306000000040000003600000000000000000000000000A40E00006662782F39413731443030452D393831352D344535312D414330452D3236363244314142434438352F747269616E676C6573
311
2E62696E504B01021400140006080000CF4492420000000000000000000000003700000000000000000000000000FE0E00006662782F39413731443030452D393831352D344535312D414330452D3236363244314142434438352F617474726962757465732E62696E504B01021400140006080800CF449242D5987DFC8F00
311
0000410100003600000000000000000000000000530F00006662782F39413731443030452D393831352D344535312D414330452D3236363244314142434438352F6469726563746F72792E786D6C504B01021400140006080800CF449242AE831D1AFD000000A00100003B0000000000000000000000000036100000666278
311
2F39413731443030452D393831352D344535312D414330452D3236363244314142434438352F7265736F75726365732F636F72652E786D6C504B0506000000000E000E00800400008C1100000000
310
504B03040A0000080000CF4492423DEE336E79000000790000001B0000006175746F6465736B2D64657369676E2D7061636B6167652E786D6C3C3F786D6C2076657273696F6E3D22312E302220656E636F64696E673D227574662D3822203F3E3C666F726D6174733E3C666F726D61743E687474703A2F2F736368656D612E
310
6175746F6465736B2E636F6D2F64657369676E2D7061636B6167652F323030393C2F666F726D61743E3C2F666F726D6174733E504B0304140006080800CF449242D486FD9CA0000000F4000000130000005B436F6E74656E745F54797065735D2E786D6C7D8EC10E82300C865F65E91D8A1E8C310C0EEA1BF002731658846E
310
D98AC1B77784ABF1D8FE5FBFBF75BBCE937A534CCEB38643598122B6FEE978D0B0485F9C41B54DDD7D022595594E1A469170414C76A4D9A4D207E29CF43ECE46F218070CC6BECC4078ACAA135ACF422C856C0E68EA1BF5669944DDD7BCDE7B1F8E415D77AECB980613C2E4AC91FC167A2B244592486606FC29C8FD7F045B9A
310
EF7053A7E60B504B0304140006080800CF449242B25E51AFE90000007C01000008000000636F72652E786D6C8D90DD8AC32010855F45E67631D1FC3529C64242DFA02F206A5369A321EAB28F5FD3A6B07BB720CC703CDFCC70D8E9677EA06FBD7AE36C0F342380B4954E193BF510C315B7804E9CADCE855F364056CCBA874D
310
06CEA6D5C56597A4B341DB9054EB94DE45E1BD0E80E423353D7879D3B3C8440CC9E1EFD922E45D4C3AA39F2EC1311A85DE4B8C4AF3CCD5E815F8D09CBBBA39504C4871C055573678A8DB0ED372ACCF6333746355B07C83390B66FEEC97AB16412BE005A1252615A6ED85B4C7323DFA45E89110966FF63F505CD43FA1686C28
310
8BFDDC37E681D374C8EB83B37CCB22955750A96EB9F127504B0304140006080800CF44924255019EA25F0000007C00000007000000636E782E786D6C4DCB3B0E80201045D1AD90E915ED2CF8AC45050C11660C8261F98AB1B07AC9C97D42D718D865D3E909258CFD00CCE24AC6E326A164D74DC0B4128928FF326038472BA1
310
3128B1252AC747C6BAB984FC68F0B87FE8960A5C09FE86CFB69FBA01504B0304140006080800CF44924251A4534B65010000020300000C0000006662782F636F72652E786D6C8D52ED8E8230107C95A67F2FD01610C5949A687C837B810A9523424B4A4B7CFC5B3E0CE7C51803816666677776801FEE6D830665FBDAE81CB3
310
9062A47461CA5A5739F6EE1AEC303A086E8D717FCA30D2B255391E612C78658DEF16A830DA29ED00D5A6540B28FB5E398C8A060E39EE8B1FD5CA507A0715FD2DEC647193950A590834D409DE3B0B06D03C647C6271BDDC399971C1BDAFCB85AD4B98565F6B65B138A6E76C936E594069B40D922C4E83E36697052C3E6DCEA7
310
F4989D928893512CB8ABDB87BBC22AE954894544591CD02460BB6FBADBC770B32FCAF6947232963F897C577E28F2B57671B4D89D653D160C8C4CC4BF6D2122877A39801F2238194384D794F073D0100884ECE4A579EC7103685085333601A6347EA506D9780553299A2E4E66163A4F0D60B3977DA2377DDEF7800F287505D6
310
A483E3C5BB713A9FA72E5174CA0683BB236D6C2B9BD5DC6C717DAE835ECA0BD318FB899A2CAB92254C32FEBDE217504B0304140006080800CF44924273A7ACF97E0000009D0000000B0000006662782F636E782E786D6C4DCCD10A83201886E15B91FFDC554B97821A32B7FB886521990EA76397BF1A1DECE883878F57F49F
310
D5A3B74D2F178384E65403B2E11147176609254F9801EA954831E6BF1BA030AC56C2CEA0C49C62791E34DA69283E6FEA5D580EBCF296307669F1591B8A89B969CC8936F8DE104E694778476AA894A87EA56DF7B0FA02504B0304140006080800CF44924230654B322A01000014020000310000006662782F43393334383836
310
332D324144352D344445412D393441442D4631343935353734393734302F636F72652E786D6C8D515B6EC32010BC8AC557AA0A1B02F123C24451D39EA017706CE2A2C460F1A872FC2EB523B57F91108B66676647AC38DCA75BF6AD9CD7D6B488E60465CAF476D0666C510C175CA3EC2085B336FCA1A1CC74936A51829114A3
310
B3715EA1DE9AA04C00D4D841AD60E7BD0A28EB6FF06891EFBFD4D4E55D0CC0F0D77CEEFA6B37AA9CE6D0069E143E3808902D43D28DE45BC3785D970C6F8FA71DE6A7F7236EF8F1843F286F76BB8A371527A2588452C4A88755AE0788A32F5AB9674D92588AA0A747FCDEA92EA801C92DA10C138E69FD49EA3D83435F09DD13
310
989CE8FF44711E9E14456D02DBAE71179947928A62694831D878BE3DC2A8FB6C5DC8D2BC8D57FD0B9224278CB3B2A29528162A7C0078967CF5F4C13AF8E0CDF50C6CB61A975C8A22ED08CAEF02A1A67DCA1F504B0304140006080800CF44924282E8A4EC5501000033030000300000006662782F43393334383836332D3241
310
44352D344445412D393441442D4631343935353734393734302F636E782E786D6CBD93CD6AC33010845F45E85AFCA3D8041364057AE813F4D0AB226D5235B26424B9346FDF55A2A4B9E450280523CCEC6866F9B0F9F66BB2E4134234DE8D94D52D25E094D7C61D46BAA47D3550B2153C789FEE6C943839C148B34C053F04BF
310
CC45D2B0978B4DA85AE38E450C10FD12144494F34D62BD921603C0550B8A30ED406BD0E466C4B73D045C05C5DD89A477202FCF6FC4EF3E40A5C89B9C2278933B04CF6769BA3351A2AC8C71A451BDC3246BB924AF211E6B2D93AC597DED7AB0D34F12C917AE954B3024978F349F54948D6AE4C81B1C0A1E53407AC5944E3350
310
21E7D91A2513426ECEC68B47F0C5B8B4EE8BD720F880EE6EB51E060C3BCF044F6682E2500164024DC5AA655DD5F6151B5EDB61D3E1C39E5AB6695BDE64BBE03BEF6DB9843110FC4C9477095CA282F1268F1FE12B3EA24D40D63E9C7E01120194D60B9D5BC65FF261EBAEEFFF914F73FEBE1157C0BF407C03504B0304140006
310
080800CF44924285C0F4265B0700008F1B0000340000006662782F43393334383836332D324144352D344445412D393441442D4631343935353734393734302F6F626A656374732E786D6CED59DD739B3810FF5718EED9D8C44E1ADF103A89DD743CBDF43AE76BE71E3CC3C820135D84602491C6F7D7DFEA030CC424F89A7B
310
EB830D0869B5FBDB4F2DC1FBA78C3A8F980B92B32BD7F726AE83599C2784A5576E2977A34BD7791F063CCF65639AEB3094E12B570DBB6190F2BC2CEC508277A8A4B2337A7BF3972362CCB0EBC4140971E58AF81E67C843A5CC132C1EBC0449E4A5BB27CFF7CCC436D994A3E2BE43B4401C33099CC238032A8E61CA6F3F4EDC
310
71188CD5FB3050FF76D674D0AC59FFACB196BACD25614222163F63A943663A88A5A93F5B7E383B9F8FCE67B3E9687671E68F6E6E6F9623FFDD74B2B8582CE6D71FE6C0DE36CFA99529C1056609E86FEF867E30566F6AD12D02C7B88E73C670AC8104A8B4585D82040BD8AA01DFA4FDE82B891AAFB5848DE7997A6F59680C4F
310
DB54FA660D03A2451704B1DB551257D7A67CF9F66F105C0C314A2EB0046E85E4A05D0B0F07AF70C3493036A361B03DE882082743127382A843C996230E4A81A96A4A189805968C720E0EA41C2581D69C79DDB62DF0CCD75DE71897BB9252E5196EA81D2B02F7C35268CEC83F981FB86F22033C81B42561F2D27229F70576C3
310
7930D68361A02ED333FBD200E9EC284A8546C4BCED08BA50AEBF5ABAE1A7DBEDD35A8583E39B173C2F3097CAE8941E355F60C8F6AA50B2DBFA8334A71680300654BBF200CA1F80FC67881E0756406F9C3CCD9E6676AEE488895DCE33D08D33714613F89B38BEFE57F78DBB605C2F6E6BAF0F4F705305D5E58FE3D996416365
310
F96FC019068F60F0399FDA57EB1851B0E73BC2002065240ECD610842FB6EFBE4862B089C10E86115A2A10F2203BB8F701B8C2D9983562AF7B25EC70051BBC774889200366D91C0468F9E3E42F6E0243EA8A929621FBCE76F62AED7CBF5A775C97728C677D6A7977847189190358F33D4C2BC25D103DE7FCF7902823EC77BDD
310
C43BB35B09405B61AE804F2B10D4C361E7D60631AC4B73156E825776002154AE6ED0BF2322C6942286F3B2DAB78E6ECA506B8FB735831B9E1988A7671D13E6F891A8AA029CE630A3C528E4FD98934281E8861F8D6475D0F47AA4FBBAFA0C1659CFEF99B562107A19A27FEAA0750487966557485B206A81B787701EE734E7D1
310
761F9948E7422D016CB4BDE55B8B28C47AA32445053C48FB5D155252236D9490DDAE1410578FB0F86DB5689AC3C49BFAE74EF3BFE38C3388B6E0BB885BBFEBEC11910CA538DAA1A46FBBE66E356DA149F690E67847412EF248E43E42329A24383D059A9388CFDF947A4A732108C302F2D551F09B684C3C0824469B15CB4AAB
310
1DA08988322C113D050145A6075C9D76748D1B43E9F03A8FB5F5BEA4B126D1FFC92238825A32671181521472C8AB8CFBDE39C49036BA06E50EBE606D156D2D062DA18488F7D1774CD27B790AEA867C0FEE311C494A19E5058AC1AC07907DE62B4AA91DDEB7287E50F9238A4BFA56062230DD4584D2328BE047189C3C86B876
310
1D985E44A141DCC43E893328CA902CF9904D2ECE27CFF631354337043636DA110A613BCA50D1837A2B20EA7AC4A9C1B7D47B94BA2DB32242595EB24186E24DBBDE64C977D5AAC80EE457958A503656842DC130204CD659B58AD960EA3AB0821BE940B58F04CA0A6A4E61AF241EBFF6264DB977036EFDF46D37C8A0F0EBD15E
310
33A2CE2A182C8FADC2407C4732BE77C3B5BE8E6EA0FE4E707248F555ADD9AC00013115C94B4EAC8ABEAEA0BCB1359A1BDE2129361F4DD6ADAE5F571E743F8231AC81DAA55EB85240679849A42A933B7543FF4010825B34CCF84AE5D453A85C2789AE1A11BD257DEA6C9511AD4D33E215F798E519FCD886B0989609DEA0443C
310
447792466BA258B7527A19A9307E51C0DF3FAE3BF0C0C80091BEA8020F7FEFACB5A30B552E1D2522EFCB6CCB108120D8122D35BAF10A965A8D545AAEAFEA4C017517189855F1ECE7C9A2D98EF879B248AD61FCD0C9E266FF1BDA37FB228D741E2BBB3EE91850E72745E52D8E01BAED5053ADB38849E6567EEB4C1104C52ACA
310
0FAEC6AAA06108F671FC9FB3765F1634DB75F83F2D6BFBCF2A8E93B24A6BB2EA521DA95C57CD1C36397B77EBCF6717A38BF972329A2DA6B3D1F5E27C369A4F2F2EDFCDA7D7D3C5E5B246533B6A18D4C14CE72E783641AD1A564F1603E8CA8A9C92044EF389936288F912CEF403DAE73CC3029267B3D99DD8A6FC80D58FA6CF
310
29D196E28A937B040D622A20AD0346652CDBE3CE2FD09A9470D0BE72A169E43DC09FB54AD781CC73E542AB4092180B6F0B6D26D5D0D3C421E5EADC6F89013E88A52A259A45F573BD4A61D30AFFF5942169C0CAD5EA6140E15640F7ABD5A1D0BC599EE29304AFD8719084DB6D29A15A33B21C066A61F43607F51BD928610F76
310
EB2770DD97C5F23D3DA785C8A04F062F1A81A13A9288A7BADFAD18B32C5D2FBF8CA1CFE6AC7E770A5AA6A0CBE194461C833197AAA0022B02ABB0340B24C15417BF6EBEF01C3EF16419D9A8BAC889F3AC6464730D47B104BE0E39EB7BF8D6936CA062C0AAA32E366713FF6CA33BD9B6B91E6D91C09E2A8560A0AA2014F71D3B
310
03637CD695B23DCBB1C2BF337DB5746CE4840E80319E678D5DF365CB01C751DF50949B68E7AE447CB1993DD653C11038B4A1C37F01504B0304140006080000CF449242000000000000000000000000350000006662782F43393334383836332D324144352D344445412D393441442D4631343935353734393734302F766572
310
74696365732E62696E504B0304140006080800CF449242F270F1330600000004000000360000006662782F43393334383836332D324144352D344445412D393441442D4631343935353734393734302F747269616E676C65732E62696E636660600000504B0304140006080000CF4492420000000000000000000000003700
310
00006662782F43393334383836332D324144352D344445412D393441442D4631343935353734393734302F617474726962757465732E62696E504B0304140006080800CF449242D5987DFC8F00000041010000360000006662782F43393334383836332D324144352D344445412D393441442D463134393535373439373430
310
2F6469726563746F72792E786D6C858F410EC2201045AF4266AF15DDB800BA74E7C21B903225242D6328188F2FA5C4183471359997F9FF81E89FF3C41E1816475E02DF1F80A11FC8386F25A438EECEC07A250251FC3803E6F58C12560C4AD840E95E91C151A72936F496F35732D860FE635F62C8F2DA16B505C545B74125BA
310
A2FA9E05D7CC053D063734D5C7665FD55B6B8D15D5E9BFEAFD8490FFA45E504B0304140006080800CF449242A1F57F37FB000000A00100003B0000006662782F43393334383836332D324144352D344445412D393441442D4631343935353734393734302F7265736F75726365732F636F72652E786D6C8D50596AC33010BD
310
8A99DF225BF2163BC80AD8E406BD809027A9482C192DA5C7AF1CBBD0FE158466780BF378FCF2B53CB34F745E5B3300CB296468949DB5B90F10C38D74905D0477D6865F32C88C5C70800D06C1EFCEC6F5809435014D48A8B1331EA0F41E0364EA999601BCFAC045E63286A4F08F7C95EA21EF98B33CD14927B80F2E05C8F623
310
DB0FC2A1B7D129F4BCD859C163D4F3A1D173BAA96F1A1D88B1BDF64D7BA284D2F244EABE6AC9D8743D61D5D45CA776ECA7BAE4C566163CE8E527A3722803CE204ACA2A426BC2BA77DA9DABF4D81B65674A79B1C9FF98E23AFFD314B5095579C4DD6D1E044B415E84E0C5D6571AAF32D3DCBA15DF504B010214000A00000800
310
00CF4492423DEE336E79000000790000001B00000000000000000000000000000000006175746F6465736B2D64657369676E2D7061636B6167652E786D6C504B01021400140006080800CF449242D486FD9CA0000000F40000001300000000000000000000000000B20000005B436F6E74656E745F54797065735D2E786D6C
310
504B01021400140006080800CF449242B25E51AFE90000007C010000080000000000000000000000000083010000636F72652E786D6C504B01021400140006080800CF44924255019EA25F0000007C000000070000000000000000000000000092020000636E782E786D6C504B01021400140006080800CF44924251A4534B
310
65010000020300000C00000000000000000000000000160300006662782F636F72652E786D6C504B01021400140006080800CF44924273A7ACF97E0000009D0000000B00000000000000000000000000A50400006662782F636E782E786D6C504B01021400140006080800CF44924230654B322A0100001402000031000000
310
000000000000000000004C0500006662782F43393334383836332D324144352D344445412D393441442D4631343935353734393734302F636F72652E786D6C504B01021400140006080800CF44924282E8A4EC55010000330300003000000000000000000000000000C50600006662782F43393334383836332D324144352D
310
344445412D393441442D4631343935353734393734302F636E782E786D6C504B01021400140006080800CF44924285C0F4265B0700008F1B00003400000000000000000000000000680800006662782F43393334383836332D324144352D344445412D393441442D4631343935353734393734302F6F626A656374732E786D
310
6C504B01021400140006080000CF4492420000000000000000000000003500000000000000000000000000151000006662782F43393334383836332D324144352D344445412D393441442D4631343935353734393734302F76657274696365732E62696E504B01021400140006080800CF449242F270F13306000000040000
310
003600000000000000000000000000681000006662782F43393334383836332D324144352D344445412D393441442D4631343935353734393734302F747269616E676C65732E62696E504B01021400140006080000CF4492420000000000000000000000003700000000000000000000000000C21000006662782F43393334
310
383836332D324144352D344445412D393441442D4631343935353734393734302F617474726962757465732E62696E504B01021400140006080800CF449242D5987DFC8F000000410100003600000000000000000000000000171100006662782F43393334383836332D324144352D344445412D393441442D463134393535
310
3734393734302F6469726563746F72792E786D6C504B01021400140006080800CF449242A1F57F37FB000000A00100003B00000000000000000000000000FA1100006662782F43393334383836332D324144352D344445412D393441442D4631343935353734393734302F7265736F75726365732F636F72652E786D6C504B
310
0506000000000E000E00800400004E1300000000
  0
XRECORD
  5
17
102
{ACAD_REACTORS
330
12
102
}
330
12
100
AcDbXrecord
280
     1
270
     1
271
     1
  0
XRECORD
  5
16
102
{ACAD_REACTORS
330
12
102
}
330
12
100
AcDbXrecord
280
     1
270
     1
271
     1
  0
XRECORD
  5
18
102
{ACAD_REACTORS
330
12
102
}
330
12
100
AcDbXrecord
280
     1
270
     1
271
     1
  0
XRECORD
  5
15
102
{ACAD_REACTORS
330
12
102
}
330
12
100
AcDbXrecord
280
     1
270
     1
271
     1
  0
XRECORD
  5
6D4
102
{ACAD_REACTORS
330
22
102
}
330
22
100
AcDbXrecord
280
     1
102
MATERIAL
148
0.0
149
0.0
149
0.0
 93
        0
 94
      127
282
     0
 72
     0
 77
     0
171
     0
175
     0
179
     0
273
     0
  0
XRECORD
  5
24
102
{ACAD_REACTORS
330
22
102
}
330
22
100
AcDbXrecord
280
     1
270
     1
271
     1
  0
XRECORD
  5
23
102
{ACAD_REACTORS
330
22
102
}
330
22
100
AcDbXrecord
280
     1
270
     1
271
     1
  0
XRECORD
  5
27
102
{ACAD_REACTORS
330
22
102
}
330
22
100
AcDbXrecord
280
     1
270
     1
271
     1
  0
XRECORD
  5
26
102
{ACAD_REACTORS
330
22
102
}
330
22
100
AcDbXrecord
280
     1
270
     1
271
     1
  0
XRECORD
  5
28
102
{ACAD_REACTORS
330
22
102
}
330
22
100
AcDbXrecord
280
     1
270
     1
271
     1
  0
XRECORD
  5
25
102
{ACAD_REACTORS
330
22
102
}
330
22
100
AcDbXrecord
280
     1
270
     1
271
     1
  0
XRECORD
  5
6CF
102
{ACAD_REACTORS
330
6CE
102
}
330
6CE
100
AcDbXrecord
280
     1
102
ACAD_ROUNDTRIP_2012_MLEADER_STYLE
298
     1
  0
CELLSTYLEMAP
  5
6CD
102
{ACAD_REACTORS
330
6CC
102
}
330
6CC
100
AcDbCellStyleMap
 90
        3
300
CELLSTYLE
  1
TABLEFORMAT_BEGIN
 90
        5
170
     1
 91
        0
 92
    32768
 62
   257
 93
        1
300
CONTENTFORMAT
  1
CONTENTFORMAT_BEGIN
 90
        0
 91
        0
 92
      512
 93
        0
300

 40
0.0
140
1.0
 94
        5
 62
     0
340
55
144
0.25
309
CONTENTFORMAT_END
171
     0
 94
        0
309
TABLEFORMAT_END
  1
CELLSTYLE_BEGIN
 90
        1
 91
        1
300
_TITLE
309
CELLSTYLE_END
300
CELLSTYLE
  1
TABLEFORMAT_BEGIN
 90
        5
170
     1
 91
        0
 92
        0
 62
   257
 93
        1
300
CONTENTFORMAT
  1
CONTENTFORMAT_BEGIN
 90
        0
 91
        0
 92
      512
 93
        0
300

 40
0.0
140
1.0
 94
        5
 62
     0
340
55
144
0.18
309
CONTENTFORMAT_END
171
     0
 94
        0
309
TABLEFORMAT_END
  1
CELLSTYLE_BEGIN
 90
        2
 91
        1
300
_HEADER
309
CELLSTYLE_END
300
CELLSTYLE
  1
TABLEFORMAT_BEGIN
 90
        5
170
     1
 91
        0
 92
        0
 62
   257
 93
        1
300
CONTENTFORMAT
  1
CONTENTFORMAT_BEGIN
 90
        0
 91
        0
 92
      512
 93
        0
300

 40
0.0
140
1.0
 94
        2
 62
     0
340
55
144
0.18
309
CONTENTFORMAT_END
171
     0
 94
        0
309
TABLEFORMAT_END
  1
CELLSTYLE_BEGIN
 90
        3
 91
        2
300
_DATA
309
CELLSTYLE_END
  0
XRECORD
  5
705
102
{ACAD_REACTORS
330
6CC
102
}
330
6CC
100
AcDbXrecord
280
     1
102
ACAD_ROUNDTRIP_PRE2007_TABLESTYLE
 90
      512
 91
        0
  1

 92
      512
 93
        0
  2

 94
      512
 95
        0
  3

  0
XRECORD
  5
6E0
102
{ACAD_REACTORS
330
6DF
102
}
330
6DF
100
AcDbXrecord
280
     1
102
RTVSPropertyOp0
 70
     1
102
RTVSPropertyOp1
 70
     1
102
RTVSPropertyOp2
 70
     1
102
RTVSPropertyOp3
 70
     1
102
RTVSPropertyOp4
 70
     1
102
RTVSPropertyOp5
 70
     1
102
RTVSPropertyOp6
 70
     1
102
RTVSPropertyOp7
 70
     1
102
RTVSPropertyOp8
 70
     1
102
RTVSPropertyOp9
 70
     1
102
RTVSPropertyOp10
 70
     1
102
RTVSPropertyOp11
 70
     1
102
RTVSPropertyOp12
 70
     1
102
RTVSPropertyOp13
 70
     1
102
RTVSPropertyOp14
 70
     1
102
RTVSPropertyOp15
 70
     1
102
RTVSPropertyOp16
 70
     1
102
RTVSPropertyOp17
 70
     1
102
RTVSPropertyOp18
 70
     1
102
RTVSPropertyOp19
 70
     1
102
RTVSPropertyOp20
 70
     1
102
RTVSPropertyOp21
 70
     1
102
RTVSPropertyOp22
 70
     1
102
RTVSPropertyOp23
 70
     1
102
RTVSPropertyOp24
 70
     1
102
RTVSPropertyOp25
 70
     1
102
RTVSPropertyOp26
 70
     1
102
RTVSPropertyOp27
 70
     1
102
RTVSPropertyOp28
 70
     1
102
RTVSPropertyOp29
 70
     1
102
RTVSPropertyOp30
 70
     1
102
RTVSPropertyOp31
 70
     1
102
RTVSPropertyOp32
 70
     1
  0
XRECORD
  5
6DE
102
{ACAD_REACTORS
330
6DD
102
}
330
6DD
100
AcDbXrecord
280
     1
102
RTVSPropertyOp0
 70
     1
102
RTVSPropertyOp1
 70
     1
102
RTVSPropertyOp2
 70
     1
102
RTVSPropertyOp3
 70
     1
102
RTVSPropertyOp4
 70
     1
102
RTVSPropertyOp5
 70
     1
102
RTVSPropertyOp6
 70
     1
102
RTVSPropertyOp7
 70
     1
102
RTVSPropertyOp8
 70
     1
102
RTVSPropertyOp9
 70
     1
102
RTVSPropertyOp10
 70
     1
102
RTVSPropertyOp11
 70
     1
102
RTVSPropertyOp12
 70
     1
102
RTVSPropertyOp13
 70
     1
102
RTVSPropertyOp14
 70
     1
102
RTVSPropertyOp15
 70
     1
102
RTVSPropertyOp16
 70
     1
102
RTVSPropertyOp17
 70
     1
102
RTVSPropertyOp18
 70
     1
102
RTVSPropertyOp19
 70
     1
102
RTVSPropertyOp20
 70
     1
102
RTVSPropertyOp21
 70
     1
102
RTVSPropertyOp22
 70
     1
102
RTVSPropertyOp23
 70
     1
102
RTVSPropertyOp24
 70
     1
102
RTVSPropertyOp25
 70
     1
102
RTVSPropertyOp26
 70
     1
102
RTVSPropertyOp27
 70
     1
102
RTVSPropertyOp28
 70
     1
102
RTVSPropertyOp29
 70
     1
102
RTVSPropertyOp30
 70
     1
102
RTVSPropertyOp31
 70
     1
102
RTVSPropertyOp32
 70
     1
  0
XRECORD
  5
6EC
102
{ACAD_REACTORS
330
6EB
102
}
330
6EB
100
AcDbXrecord
280
     1
102
RTVSPropertyOp0
 70
     1
102
RTVSPropertyOp1
 70
     1
102
RTVSPropertyOp2
 70
     1
102
RTVSPropertyOp3
 70
     1
102
RTVSPropertyOp4
 70
     1
102
RTVSPropertyOp5
 70
     1
102
RTVSPropertyOp6
 70
     1
102
RTVSPropertyOp7
 70
     1
102
RTVSPropertyOp8
 70
     1
102
RTVSPropertyOp9
 70
     1
102
RTVSPropertyOp10
 70
     1
102
RTVSPropertyOp11
 70
     1
102
RTVSPropertyOp12
 70
     1
102
RTVSPropertyOp13
 70
     1
102
RTVSPropertyOp14
 70
     1
102
RTVSPropertyOp15
 70
     1
102
RTVSPropertyOp16
 70
     1
102
RTVSPropertyOp17
 70
     1
102
RTVSPropertyOp18
 70
     1
102
RTVSPropertyOp19
 70
     1
102
RTVSPropertyOp20
 70
     1
102
RTVSPropertyOp21
 70
     1
102
RTVSPropertyOp22
 70
     1
102
RTVSPropertyOp23
 70
     1
102
RTVSPropertyOp24
 70
     1
102
RTVSPropertyOp25
 70
     1
102
RTVSPropertyOp26
 70
     1
102
RTVSPropertyOp27
 70
     1
102
RTVSPropertyOp28
 70
     1
102
RTVSPropertyOp29
 70
     1
102
RTVSPropertyOp30
 70
     1
102
RTVSPropertyOp31
 70
     1
102
RTVSPropertyOp32
 70
     1
  0
XRECORD
  5
6F4
102
{ACAD_REACTORS
330
6F3
102
}
330
6F3
100
AcDbXrecord
280
     1
102
RTVSPropertyOp0
 70
     1
102
RTVSPropertyOp1
 70
     1
102
RTVSPropertyOp2
 70
     1
102
RTVSPropertyOp3
 70
     1
102
RTVSPropertyOp4
 70
     1
102
RTVSPropertyOp5
 70
     1
102
RTVSPropertyOp6
 70
     1
102
RTVSPropertyOp7
 70
     1
102
RTVSPropertyOp8
 70
     1
102
RTVSPropertyOp9
 70
     1
102
RTVSPropertyOp10
 70
     1
102
RTVSPropertyOp11
 70
     1
102
RTVSPropertyOp12
 70
     1
102
RTVSPropertyOp13
 70
     1
102
RTVSPropertyOp14
 70
     1
102
RTVSPropertyOp15
 70
     1
102
RTVSPropertyOp16
 70
     1
102
RTVSPropertyOp17
 70
     1
102
RTVSPropertyOp18
 70
     1
102
RTVSPropertyOp19
 70
     1
102
RTVSPropertyOp20
 70
     1
102
RTVSPropertyOp21
 70
     1
102
RTVSPropertyOp22
 70
     1
102
RTVSPropertyOp23
 70
     1
102
RTVSPropertyOp24
 70
     1
102
RTVSPropertyOp25
 70
     1
102
RTVSPropertyOp26
 70
     1
102
RTVSPropertyOp27
 70
     1
102
RTVSPropertyOp28
 70
     1
102
RTVSPropertyOp29
 70
     1
102
RTVSPropertyOp30
 70
     1
102
RTVSPropertyOp31
 70
     1
102
RTVSPropertyOp32
 70
     1
  0
XRECORD
  5
6E6
102
{ACAD_REACTORS
330
6E5
102
}
330
6E5
100
AcDbXrecord
280
     1
102
RTVSPropertyOp0
 70
     1
102
RTVSPropertyOp1
 70
     1
102
RTVSPropertyOp2
 70
     1
102
RTVSPropertyOp3
 70
     1
102
RTVSPropertyOp4
 70
     1
102
RTVSPropertyOp5
 70
     1
102
RTVSPropertyOp6
 70
     1
102
RTVSPropertyOp7
 70
     1
102
RTVSPropertyOp8
 70
     1
102
RTVSPropertyOp9
 70
     1
102
RTVSPropertyOp10
 70
     1
102
RTVSPropertyOp11
 70
     1
102
RTVSPropertyOp12
 70
     1
102
RTVSPropertyOp13
 70
     1
102
RTVSPropertyOp14
 70
     1
102
RTVSPropertyOp15
 70
     1
102
RTVSPropertyOp16
 70
     1
102
RTVSPropertyOp17
 70
     1
102
RTVSPropertyOp18
 70
     1
102
RTVSPropertyOp19
 70
     1
102
RTVSPropertyOp20
 70
     1
102
RTVSPropertyOp21
 70
     1
102
RTVSPropertyOp22
 70
     1
102
RTVSPropertyOp23
 70
     1
102
RTVSPropertyOp24
 70
     1
102
RTVSPropertyOp25
 70
     1
102
RTVSPropertyOp26
 70
     1
102
RTVSPropertyOp27
 70
     1
102
RTVSPropertyOp28
 70
     1
102
RTVSPropertyOp29
 70
     1
102
RTVSPropertyOp30
 70
     1
102
RTVSPropertyOp31
 70
     1
102
RTVSPropertyOp32
 70
     1
  0
XRECORD
  5
6EA
102
{ACAD_REACTORS
330
6E9
102
}
330
6E9
100
AcDbXrecord
280
     1
102
RTVSPropertyOp0
 70
     1
102
RTVSPropertyOp1
 70
     1
102
RTVSPropertyOp2
 70
     1
102
RTVSPropertyOp3
 70
     1
102
RTVSPropertyOp4
 70
     1
102
RTVSPropertyOp5
 70
     1
102
RTVSPropertyOp6
 70
     1
102
RTVSPropertyOp7
 70
     1
102
RTVSPropertyOp8
 70
     1
102
RTVSPropertyOp9
 70
     1
102
RTVSPropertyOp10
 70
     1
102
RTVSPropertyOp11
 70
     1
102
RTVSPropertyOp12
 70
     1
102
RTVSPropertyOp13
 70
     1
102
RTVSPropertyOp14
 70
     1
102
RTVSPropertyOp15
 70
     1
102
RTVSPropertyOp16
 70
     1
102
RTVSPropertyOp17
 70
     1
102
RTVSPropertyOp18
 70
     1
102
RTVSPropertyOp19
 70
     1
102
RTVSPropertyOp20
 70
     1
102
RTVSPropertyOp21
 70
     1
102
RTVSPropertyOp22
 70
     1
102
RTVSPropertyOp23
 70
     1
102
RTVSPropertyOp24
 70
     1
102
RTVSPropertyOp25
 70
     1
102
RTVSPropertyOp26
 70
     1
102
RTVSPropertyOp27
 70
     1
102
RTVSPropertyOp28
 70
     1
102
RTVSPropertyOp29
 70
     1
102
RTVSPropertyOp30
 70
     1
102
RTVSPropertyOp31
 70
     1
102
RTVSPropertyOp32
 70
     1
  0
XRECORD
  5
704
102
{ACAD_REACTORS
330
703
102
}
330
703
100
AcDbXrecord
280
     1
102
RTVSPropertyOp0
 70
     0
102
RTVSPropertyOp1
 70
     0
102
RTVSPropertyOp2
 70
     0
102
RTVSPropertyOp3
 70
     0
102
RTVSPropertyOp4
 70
     0
102
RTVSPropertyOp5
 70
     0
102
RTVSPropertyOp6
 70
     0
102
RTVSPropertyOp7
 70
     0
102
RTVSPropertyOp8
 70
     0
102
RTVSPropertyOp9
 70
     0
102
RTVSPropertyOp10
 70
     0
102
RTVSPropertyOp11
 70
     0
102
RTVSPropertyOp12
 70
     0
102
RTVSPropertyOp13
 70
     0
102
RTVSPropertyOp14
 70
     2
102
RTVSPropertyOp15
 70
     0
102
RTVSPropertyOp16
 70
     0
102
RTVSPropertyOp17
 70
     0
102
RTVSPropertyOp18
 70
     0
102
RTVSPropertyOp19
 70
     0
102
RTVSPropertyOp20
 70
     0
102
RTVSPropertyOp21
 70
     0
102
RTVSPropertyOp22
 70
     0
102
RTVSPropertyOp23
 70
     0
102
RTVSPropertyOp24
 70
     0
102
RTVSPropertyOp25
 70
     0
102
RTVSPropertyOp26
 70
     0
102
RTVSPropertyOp27
 70
     0
102
RTVSPropertyOp28
 70
     1
102
RTVSPropertyOp29
 70
     1
102
RTVSPropertyOp30
 70
     1
102
RTVSPropertyOp31
 70
     1
102
RTVSPropertyOp32
 70
     1
  0
XRECORD
  5
6F2
102
{ACAD_REACTORS
330
6F1
102
}
330
6F1
100
AcDbXrecord
280
     1
102
RTVSPropertyOp0
 70
     1
102
RTVSPropertyOp1
 70
     1
102
RTVSPropertyOp2
 70
     1
102
RTVSPropertyOp3
 70
     1
102
RTVSPropertyOp4
 70
     1
102
RTVSPropertyOp5
 70
     1
102
RTVSPropertyOp6
 70
     1
102
RTVSPropertyOp7
 70
     1
102
RTVSPropertyOp8
 70
     1
102
RTVSPropertyOp9
 70
     1
102
RTVSPropertyOp10
 70
     1
102
RTVSPropertyOp11
 70
     1
102
RTVSPropertyOp12
 70
     1
102
RTVSPropertyOp13
 70
     1
102
RTVSPropertyOp14
 70
     1
102
RTVSPropertyOp15
 70
     1
102
RTVSPropertyOp16
 70
     1
102
RTVSPropertyOp17
 70
     1
102
RTVSPropertyOp18
 70
     1
102
RTVSPropertyOp19
 70
     1
102
RTVSPropertyOp20
 70
     1
102
RTVSPropertyOp21
 70
     1
102
RTVSPropertyOp22
 70
     1
102
RTVSPropertyOp23
 70
     1
102
RTVSPropertyOp24
 70
     1
102
RTVSPropertyOp25
 70
     1
102
RTVSPropertyOp26
 70
     1
102
RTVSPropertyOp27
 70
     1
102
RTVSPropertyOp28
 70
     1
102
RTVSPropertyOp29
 70
     1
102
RTVSPropertyOp30
 70
     1
102
RTVSPropertyOp31
 70
     1
102
RTVSPropertyOp32
 70
     1
  0
XRECORD
  5
6D6
102
{ACAD_REACTORS
330
6D5
102
}
330
6D5
100
AcDbXrecord
280
     1
102
RTVSPropertyOp0
 70
     1
102
RTVSPropertyOp1
 70
     1
102
RTVSPropertyOp2
 70
     1
102
RTVSPropertyOp3
 70
     1
102
RTVSPropertyOp4
 70
     1
102
RTVSPropertyOp5
 70
     1
102
RTVSPropertyOp6
 70
     1
102
RTVSPropertyOp7
 70
     1
102
RTVSPropertyOp8
 70
     1
102
RTVSPropertyOp9
 70
     1
102
RTVSPropertyOp10
 70
     1
102
RTVSPropertyOp11
 70
     1
102
RTVSPropertyOp12
 70
     1
102
RTVSPropertyOp13
 70
     1
102
RTVSPropertyOp14
 70
     1
102
RTVSPropertyOp15
 70
     1
102
RTVSPropertyOp16
 70
     1
102
RTVSPropertyOp17
 70
     1
102
RTVSPropertyOp18
 70
     1
102
RTVSPropertyOp19
 70
     1
102
RTVSPropertyOp20
 70
     1
102
RTVSPropertyOp21
 70
     1
102
RTVSPropertyOp22
 70
     1
102
RTVSPropertyOp23
 70
     1
102
RTVSPropertyOp24
 70
     1
102
RTVSPropertyOp25
 70
     1
102
RTVSPropertyOp26
 70
     1
102
RTVSPropertyOp27
 70
     1
102
RTVSPropertyOp28
 70
     1
102
RTVSPropertyOp29
 70
     1
102
RTVSPropertyOp30
 70
     1
102
RTVSPropertyOp31
 70
     1
102
RTVSPropertyOp32
 70
     1
  0
XRECORD
  5
6D8
102
{ACAD_REACTORS
330
6D7
102
}
330
6D7
100
AcDbXrecord
280
     1
102
RTVSPropertyOp0
 70
     1
102
RTVSPropertyOp1
 70
     1
102
RTVSPropertyOp2
 70
     1
102
RTVSPropertyOp3
 70
     1
102
RTVSPropertyOp4
 70
     1
102
RTVSPropertyOp5
 70
     1
102
RTVSPropertyOp6
 70
     1
102
RTVSPropertyOp7
 70
     1
102
RTVSPropertyOp8
 70
     1
102
RTVSPropertyOp9
 70
     1
102
RTVSPropertyOp10
 70
     1
102
RTVSPropertyOp11
 70
     1
102
RTVSPropertyOp12
 70
     1
102
RTVSPropertyOp13
 70
     1
102
RTVSPropertyOp14
 70
     1
102
RTVSPropertyOp15
 70
     1
102
RTVSPropertyOp16
 70
     1
102
RTVSPropertyOp17
 70
     1
102
RTVSPropertyOp18
 70
     1
102
RTVSPropertyOp19
 70
     1
102
RTVSPropertyOp20
 70
     1
102
RTVSPropertyOp21
 70
     1
102
RTVSPropertyOp22
 70
     1
102
RTVSPropertyOp23
 70
     1
102
RTVSPropertyOp24
 70
     1
102
RTVSPropertyOp25
 70
     1
102
RTVSPropertyOp26
 70
     1
102
RTVSPropertyOp27
 70
     1
102
RTVSPropertyOp28
 70
     1
102
RTVSPropertyOp29
 70
     1
102
RTVSPropertyOp30
 70
     1
102
RTVSPropertyOp31
 70
     1
102
RTVSPropertyOp32
 70
     1
  0
XRECORD
  5
6DA
102
{ACAD_REACTORS
330
6D9
102
}
330
6D9
100
AcDbXrecord
280
     1
102
RTVSPropertyOp0
 70
     1
102
RTVSPropertyOp1
 70
     1
102
RTVSPropertyOp2
 70
     1
102
RTVSPropertyOp3
 70
     1
102
RTVSPropertyOp4
 70
     1
102
RTVSPropertyOp5
 70
     1
102
RTVSPropertyOp6
 70
     1
102
RTVSPropertyOp7
 70
     1
102
RTVSPropertyOp8
 70
     1
102
RTVSPropertyOp9
 70
     1
102
RTVSPropertyOp10
 70
     1
102
RTVSPropertyOp11
 70
     1
102
RTVSPropertyOp12
 70
     1
102
RTVSPropertyOp13
 70
     1
102
RTVSPropertyOp14
 70
     1
102
RTVSPropertyOp15
 70
     1
102
RTVSPropertyOp16
 70
     1
102
RTVSPropertyOp17
 70
     1
102
RTVSPropertyOp18
 70
     1
102
RTVSPropertyOp19
 70
     1
102
RTVSPropertyOp20
 70
     1
102
RTVSPropertyOp21
 70
     1
102
RTVSPropertyOp22
 70
     1
102
RTVSPropertyOp23
 70
     1
102
RTVSPropertyOp24
 70
     1
102
RTVSPropertyOp25
 70
     1
102
RTVSPropertyOp26
 70
     1
102
RTVSPropertyOp27
 70
     1
102
RTVSPropertyOp28
 70
     1
102
RTVSPropertyOp29
 70
     1
102
RTVSPropertyOp30
 70
     1
102
RTVSPropertyOp31
 70
     1
102
RTVSPropertyOp32
 70
     1
  0
XRECORD
  5
6DC
102
{ACAD_REACTORS
330
6DB
102
}
330
6DB
100
AcDbXrecord
280
     1
102
RTVSPropertyOp0
 70
     1
102
RTVSPropertyOp1
 70
     1
102
RTVSPropertyOp2
 70
     1
102
RTVSPropertyOp3
 70
     1
102
RTVSPropertyOp4
 70
     1
102
RTVSPropertyOp5
 70
     1
102
RTVSPropertyOp6
 70
     1
102
RTVSPropertyOp7
 70
     1
102
RTVSPropertyOp8
 70
     1
102
RTVSPropertyOp9
 70
     1
102
RTVSPropertyOp10
 70
     1
102
RTVSPropertyOp11
 70
     1
102
RTVSPropertyOp12
 70
     1
102
RTVSPropertyOp13
 70
     1
102
RTVSPropertyOp14
 70
     1
102
RTVSPropertyOp15
 70
     1
102
RTVSPropertyOp16
 70
     1
102
RTVSPropertyOp17
 70
     1
102
RTVSPropertyOp18
 70
     1
102
RTVSPropertyOp19
 70
     1
102
RTVSPropertyOp20
 70
     1
102
RTVSPropertyOp21
 70
     1
102
RTVSPropertyOp22
 70
     1
102
RTVSPropertyOp23
 70
     1
102
RTVSPropertyOp24
 70
     1
102
RTVSPropertyOp25
 70
     1
102
RTVSPropertyOp26
 70
     1
102
RTVSPropertyOp27
 70
     1
102
RTVSPropertyOp28
 70
     1
102
RTVSPropertyOp29
 70
     1
102
RTVSPropertyOp30
 70
     1
102
RTVSPropertyOp31
 70
     1
102
RTVSPropertyOp32
 70
     1
  0
XRECORD
  5
6E4
102
{ACAD_REACTORS
330
6E3
102
}
330
6E3
100
AcDbXrecord
280
     1
102
RTVSPropertyOp0
 70
     1
102
RTVSPropertyOp1
 70
     1
102
RTVSPropertyOp2
 70
     1
102
RTVSPropertyOp3
 70
     1
102
RTVSPropertyOp4
 70
     1
102
RTVSPropertyOp5
 70
     1
102
RTVSPropertyOp6
 70
     1
102
RTVSPropertyOp7
 70
     1
102
RTVSPropertyOp8
 70
     1
102
RTVSPropertyOp9
 70
     1
102
RTVSPropertyOp10
 70
     1
102
RTVSPropertyOp11
 70
     1
102
RTVSPropertyOp12
 70
     1
102
RTVSPropertyOp13
 70
     1
102
RTVSPropertyOp14
 70
     1
102
RTVSPropertyOp15
 70
     1
102
RTVSPropertyOp16
 70
     1
102
RTVSPropertyOp17
 70
     1
102
RTVSPropertyOp18
 70
     1
102
RTVSPropertyOp19
 70
     1
102
RTVSPropertyOp20
 70
     1
102
RTVSPropertyOp21
 70
     1
102
RTVSPropertyOp22
 70
     1
102
RTVSPropertyOp23
 70
     1
102
RTVSPropertyOp24
 70
     1
102
RTVSPropertyOp25
 70
     1
102
RTVSPropertyOp26
 70
     1
102
RTVSPropertyOp27
 70
     1
102
RTVSPropertyOp28
 70
     1
102
RTVSPropertyOp29
 70
     1
102
RTVSPropertyOp30
 70
     1
102
RTVSPropertyOp31
 70
     1
102
RTVSPropertyOp32
 70
     1
  0
XRECORD
  5
700
102
{ACAD_REACTORS
330
6FF
102
}
330
6FF
100
AcDbXrecord
280
     1
102
RTVSPropertyOp0
 70
     0
102
RTVSPropertyOp1
 70
     0
102
RTVSPropertyOp2
 70
     0
102
RTVSPropertyOp3
 70
     0
102
RTVSPropertyOp4
 70
     0
102
RTVSPropertyOp5
 70
     0
102
RTVSPropertyOp6
 70
     0
102
RTVSPropertyOp7
 70
     0
102
RTVSPropertyOp8
 70
     0
102
RTVSPropertyOp9
 70
     0
102
RTVSPropertyOp10
 70
     0
102
RTVSPropertyOp11
 70
     0
102
RTVSPropertyOp12
 70
     0
102
RTVSPropertyOp13
 70
     0
102
RTVSPropertyOp14
 70
     2
102
RTVSPropertyOp15
 70
     0
102
RTVSPropertyOp16
 70
     0
102
RTVSPropertyOp17
 70
     0
102
RTVSPropertyOp18
 70
     0
102
RTVSPropertyOp19
 70
     0
102
RTVSPropertyOp20
 70
     0
102
RTVSPropertyOp21
 70
     0
102
RTVSPropertyOp22
 70
     0
102
RTVSPropertyOp23
 70
     0
102
RTVSPropertyOp24
 70
     0
102
RTVSPropertyOp25
 70
     0
102
RTVSPropertyOp26
 70
     0
102
RTVSPropertyOp27
 70
     0
102
RTVSPropertyOp28
 70
     1
102
RTVSPropertyOp29
 70
     1
102
RTVSPropertyOp30
 70
     1
102
RTVSPropertyOp31
 70
     1
102
RTVSPropertyOp32
 70
     1
  0
XRECORD
  5
6F0
102
{ACAD_REACTORS
330
6EF
102
}
330
6EF
100
AcDbXrecord
280
     1
102
RTVSPropertyOp0
 70
     1
102
RTVSPropertyOp1
 70
     1
102
RTVSPropertyOp2
 70
     1
102
RTVSPropertyOp3
 70
     1
102
RTVSPropertyOp4
 70
     1
102
RTVSPropertyOp5
 70
     1
102
RTVSPropertyOp6
 70
     1
102
RTVSPropertyOp7
 70
     1
102
RTVSPropertyOp8
 70
     1
102
RTVSPropertyOp9
 70
     1
102
RTVSPropertyOp10
 70
     1
102
RTVSPropertyOp11
 70
     1
102
RTVSPropertyOp12
 70
     1
102
RTVSPropertyOp13
 70
     1
102
RTVSPropertyOp14
 70
     1
102
RTVSPropertyOp15
 70
     1
102
RTVSPropertyOp16
 70
     1
102
RTVSPropertyOp17
 70
     1
102
RTVSPropertyOp18
 70
     1
102
RTVSPropertyOp19
 70
     1
102
RTVSPropertyOp20
 70
     1
102
RTVSPropertyOp21
 70
     1
102
RTVSPropertyOp22
 70
     1
102
RTVSPropertyOp23
 70
     1
102
RTVSPropertyOp24
 70
     1
102
RTVSPropertyOp25
 70
     1
102
RTVSPropertyOp26
 70
     1
102
RTVSPropertyOp27
 70
     1
102
RTVSPropertyOp28
 70
     1
102
RTVSPropertyOp29
 70
     1
102
RTVSPropertyOp30
 70
     1
102
RTVSPropertyOp31
 70
     1
102
RTVSPropertyOp32
 70
     1
  0
XRECORD
  5
702
102
{ACAD_REACTORS
330
701
102
}
330
701
100
AcDbXrecord
280
     1
102
RTVSPropertyOp0
 70
     0
102
RTVSPropertyOp1
 70
     0
102
RTVSPropertyOp2
 70
     0
102
RTVSPropertyOp3
 70
     0
102
RTVSPropertyOp4
 70
     0
102
RTVSPropertyOp5
 70
     0
102
RTVSPropertyOp6
 70
     0
102
RTVSPropertyOp7
 70
     0
102
RTVSPropertyOp8
 70
     0
102
RTVSPropertyOp9
 70
     0
102
RTVSPropertyOp10
 70
     0
102
RTVSPropertyOp11
 70
     0
102
RTVSPropertyOp12
 70
     0
102
RTVSPropertyOp13
 70
     0
102
RTVSPropertyOp14
 70
     2
102
RTVSPropertyOp15
 70
     0
102
RTVSPropertyOp16
 70
     0
102
RTVSPropertyOp17
 70
     0
102
RTVSPropertyOp18
 70
     0
102
RTVSPropertyOp19
 70
     0
102
RTVSPropertyOp20
 70
     0
102
RTVSPropertyOp21
 70
     0
102
RTVSPropertyOp22
 70
     0
102
RTVSPropertyOp23
 70
     0
102
RTVSPropertyOp24
 70
     0
102
RTVSPropertyOp25
 70
     0
102
RTVSPropertyOp26
 70
     0
102
RTVSPropertyOp27
 70
     0
102
RTVSPropertyOp28
 70
     1
102
RTVSPropertyOp29
 70
     1
102
RTVSPropertyOp30
 70
     1
102
RTVSPropertyOp31
 70
     1
102
RTVSPropertyOp32
 70
     1
  0
XRECORD
  5
6E8
102
{ACAD_REACTORS
330
6E7
102
}
330
6E7
100
AcDbXrecord
280
     1
102
RTVSPropertyOp0
 70
     1
102
RTVSPropertyOp1
 70
     1
102
RTVSPropertyOp2
 70
     1
102
RTVSPropertyOp3
 70
     1
102
RTVSPropertyOp4
 70
     1
102
RTVSPropertyOp5
 70
     1
102
RTVSPropertyOp6
 70
     1
102
RTVSPropertyOp7
 70
     1
102
RTVSPropertyOp8
 70
     1
102
RTVSPropertyOp9
 70
     1
102
RTVSPropertyOp10
 70
     1
102
RTVSPropertyOp11
 70
     1
102
RTVSPropertyOp12
 70
     1
102
RTVSPropertyOp13
 70
     1
102
RTVSPropertyOp14
 70
     1
102
RTVSPropertyOp15
 70
     1
102
RTVSPropertyOp16
 70
     1
102
RTVSPropertyOp17
 70
     1
102
RTVSPropertyOp18
 70
     1
102
RTVSPropertyOp19
 70
     1
102
RTVSPropertyOp20
 70
     1
102
RTVSPropertyOp21
 70
     1
102
RTVSPropertyOp22
 70
     1
102
RTVSPropertyOp23
 70
     1
102
RTVSPropertyOp24
 70
     1
102
RTVSPropertyOp25
 70
     1
102
RTVSPropertyOp26
 70
     1
102
RTVSPropertyOp27
 70
     1
102
RTVSPropertyOp28
 70
     1
102
RTVSPropertyOp29
 70
     1
102
RTVSPropertyOp30
 70
     1
102
RTVSPropertyOp31
 70
     1
102
RTVSPropertyOp32
 70
     1
  0
XRECORD
  5
6FE
102
{ACAD_REACTORS
330
6FD
102
}
330
6FD
100
AcDbXrecord
280
     1
102
RTVSPropertyOp0
 70
     1
102
RTVSPropertyOp1
 70
     1
102
RTVSPropertyOp2
 70
     1
102
RTVSPropertyOp3
 70
     1
102
RTVSPropertyOp4
 70
     1
102
RTVSPropertyOp5
 70
     1
102
RTVSPropertyOp6
 70
     1
102
RTVSPropertyOp7
 70
     1
102
RTVSPropertyOp8
 70
     1
102
RTVSPropertyOp9
 70
     1
102
RTVSPropertyOp10
 70
     1
102
RTVSPropertyOp11
 70
     1
102
RTVSPropertyOp12
 70
     1
102
RTVSPropertyOp13
 70
     1
102
RTVSPropertyOp14
 70
     1
102
RTVSPropertyOp15
 70
     1
102
RTVSPropertyOp16
 70
     1
102
RTVSPropertyOp17
 70
     1
102
RTVSPropertyOp18
 70
     1
102
RTVSPropertyOp19
 70
     1
102
RTVSPropertyOp20
 70
     1
102
RTVSPropertyOp21
 70
     1
102
RTVSPropertyOp22
 70
     1
102
RTVSPropertyOp23
 70
     1
102
RTVSPropertyOp24
 70
     1
102
RTVSPropertyOp25
 70
     1
102
RTVSPropertyOp26
 70
     1
102
RTVSPropertyOp27
 70
     1
102
RTVSPropertyOp28
 70
     1
102
RTVSPropertyOp29
 70
     1
102
RTVSPropertyOp30
 70
     1
102
RTVSPropertyOp31
 70
     1
102
RTVSPropertyOp32
 70
     1
  0
XRECORD
  5
6FC
102
{ACAD_REACTORS
330
6FB
102
}
330
6FB
100
AcDbXrecord
280
     1
102
RTVSPropertyOp0
 70
     1
102
RTVSPropertyOp1
 70
     1
102
RTVSPropertyOp2
 70
     1
102
RTVSPropertyOp3
 70
     1
102
RTVSPropertyOp4
 70
     1
102
RTVSPropertyOp5
 70
     1
102
RTVSPropertyOp6
 70
     1
102
RTVSPropertyOp7
 70
     1
102
RTVSPropertyOp8
 70
     1
102
RTVSPropertyOp9
 70
     1
102
RTVSPropertyOp10
 70
     1
102
RTVSPropertyOp11
 70
     1
102
RTVSPropertyOp12
 70
     1
102
RTVSPropertyOp13
 70
     1
102
RTVSPropertyOp14
 70
     1
102
RTVSPropertyOp15
 70
     1
102
RTVSPropertyOp16
 70
     1
102
RTVSPropertyOp17
 70
     1
102
RTVSPropertyOp18
 70
     1
102
RTVSPropertyOp19
 70
     1
102
RTVSPropertyOp20
 70
     1
102
RTVSPropertyOp21
 70
     1
102
RTVSPropertyOp22
 70
     1
102
RTVSPropertyOp23
 70
     1
102
RTVSPropertyOp24
 70
     1
102
RTVSPropertyOp25
 70
     1
102
RTVSPropertyOp26
 70
     1
102
RTVSPropertyOp27
 70
     1
102
RTVSPropertyOp28
 70
     1
102
RTVSPropertyOp29
 70
     1
102
RTVSPropertyOp30
 70
     1
102
RTVSPropertyOp31
 70
     1
102
RTVSPropertyOp32
 70
     1
  0
XRECORD
  5
6F6
102
{ACAD_REACTORS
330
6F5
102
}
330
6F5
100
AcDbXrecord
280
     1
102
RTVSPropertyOp0
 70
     1
102
RTVSPropertyOp1
 70
     1
102
RTVSPropertyOp2
 70
     1
102
RTVSPropertyOp3
 70
     1
102
RTVSPropertyOp4
 70
     1
102
RTVSPropertyOp5
 70
     1
102
RTVSPropertyOp6
 70
     1
102
RTVSPropertyOp7
 70
     1
102
RTVSPropertyOp8
 70
     1
102
RTVSPropertyOp9
 70
     1
102
RTVSPropertyOp10
 70
     1
102
RTVSPropertyOp11
 70
     1
102
RTVSPropertyOp12
 70
     1
102
RTVSPropertyOp13
 70
     1
102
RTVSPropertyOp14
 70
     1
102
RTVSPropertyOp15
 70
     1
102
RTVSPropertyOp16
 70
     1
102
RTVSPropertyOp17
 70
     1
102
RTVSPropertyOp18
 70
     1
102
RTVSPropertyOp19
 70
     1
102
RTVSPropertyOp20
 70
     1
102
RTVSPropertyOp21
 70
     1
102
RTVSPropertyOp22
 70
     1
102
RTVSPropertyOp23
 70
     1
102
RTVSPropertyOp24
 70
     1
102
RTVSPropertyOp25
 70
     1
102
RTVSPropertyOp26
 70
     1
102
RTVSPropertyOp27
 70
     1
102
RTVSPropertyOp28
 70
     1
102
RTVSPropertyOp29
 70
     1
102
RTVSPropertyOp30
 70
     1
102
RTVSPropertyOp31
 70
     1
102
RTVSPropertyOp32
 70
     1
  0
XRECORD
  5
6F8
102
{ACAD_REACTORS
330
6F7
102
}
330
6F7
100
AcDbXrecord
280
     1
102
RTVSPropertyOp0
 70
     1
102
RTVSPropertyOp1
 70
     1
102
RTVSPropertyOp2
 70
     1
102
RTVSPropertyOp3
 70
     1
102
RTVSPropertyOp4
 70
     1
102
RTVSPropertyOp5
 70
     1
102
RTVSPropertyOp6
 70
     1
102
RTVSPropertyOp7
 70
     1
102
RTVSPropertyOp8
 70
     1
102
RTVSPropertyOp9
 70
     1
102
RTVSPropertyOp10
 70
     1
102
RTVSPropertyOp11
 70
     1
102
RTVSPropertyOp12
 70
     1
102
RTVSPropertyOp13
 70
     1
102
RTVSPropertyOp14
 70
     1
102
RTVSPropertyOp15
 70
     1
102
RTVSPropertyOp16
 70
     1
102
RTVSPropertyOp17
 70
     1
102
RTVSPropertyOp18
 70
     1
102
RTVSPropertyOp19
 70
     1
102
RTVSPropertyOp20
 70
     1
102
RTVSPropertyOp21
 70
     1
102
RTVSPropertyOp22
 70
     1
102
RTVSPropertyOp23
 70
     1
102
RTVSPropertyOp24
 70
     1
102
RTVSPropertyOp25
 70
     1
102
RTVSPropertyOp26
 70
     1
102
RTVSPropertyOp27
 70
     1
102
RTVSPropertyOp28
 70
     1
102
RTVSPropertyOp29
 70
     1
102
RTVSPropertyOp30
 70
     1
102
RTVSPropertyOp31
 70
     1
102
RTVSPropertyOp32
 70
     1
  0
XRECORD
  5
6EE
102
{ACAD_REACTORS
330
6ED
102
}
330
6ED
100
AcDbXrecord
280
     1
102
RTVSPropertyOp0
 70
     1
102
RTVSPropertyOp1
 70
     1
102
RTVSPropertyOp2
 70
     1
102
RTVSPropertyOp3
 70
     1
102
RTVSPropertyOp4
 70
     1
102
RTVSPropertyOp5
 70
     1
102
RTVSPropertyOp6
 70
     1
102
RTVSPropertyOp7
 70
     1
102
RTVSPropertyOp8
 70
     1
102
RTVSPropertyOp9
 70
     1
102
RTVSPropertyOp10
 70
     1
102
RTVSPropertyOp11
 70
     1
102
RTVSPropertyOp12
 70
     1
102
RTVSPropertyOp13
 70
     1
102
RTVSPropertyOp14
 70
     1
102
RTVSPropertyOp15
 70
     1
102
RTVSPropertyOp16
 70
     1
102
RTVSPropertyOp17
 70
     1
102
RTVSPropertyOp18
 70
     1
102
RTVSPropertyOp19
 70
     1
102
RTVSPropertyOp20
 70
     1
102
RTVSPropertyOp21
 70
     1
102
RTVSPropertyOp22
 70
     1
102
RTVSPropertyOp23
 70
     1
102
RTVSPropertyOp24
 70
     1
102
RTVSPropertyOp25
 70
     1
102
RTVSPropertyOp26
 70
     1
102
RTVSPropertyOp27
 70
     1
102
RTVSPropertyOp28
 70
     1
102
RTVSPropertyOp29
 70
     1
102
RTVSPropertyOp30
 70
     1
102
RTVSPropertyOp31
 70
     1
102
RTVSPropertyOp32
 70
     1
  0
XRECORD
  5
6E2
102
{ACAD_REACTORS
330
6E1
102
}
330
6E1
100
AcDbXrecord
280
     1
102
RTVSPropertyOp0
 70
     1
102
RTVSPropertyOp1
 70
     1
102
RTVSPropertyOp2
 70
     1
102
RTVSPropertyOp3
 70
     1
102
RTVSPropertyOp4
 70
     1
102
RTVSPropertyOp5
 70
     1
102
RTVSPropertyOp6
 70
     1
102
RTVSPropertyOp7
 70
     1
102
RTVSPropertyOp8
 70
     1
102
RTVSPropertyOp9
 70
     1
102
RTVSPropertyOp10
 70
     1
102
RTVSPropertyOp11
 70
     1
102
RTVSPropertyOp12
 70
     1
102
RTVSPropertyOp13
 70
     1
102
RTVSPropertyOp14
 70
     1
102
RTVSPropertyOp15
 70
     1
102
RTVSPropertyOp16
 70
     1
102
RTVSPropertyOp17
 70
     1
102
RTVSPropertyOp18
 70
     1
102
RTVSPropertyOp19
 70
     1
102
RTVSPropertyOp20
 70
     1
102
RTVSPropertyOp21
 70
     1
102
RTVSPropertyOp22
 70
     1
102
RTVSPropertyOp23
 70
     1
102
RTVSPropertyOp24
 70
     1
102
RTVSPropertyOp25
 70
     1
102
RTVSPropertyOp26
 70
     1
102
RTVSPropertyOp27
 70
     1
102
RTVSPropertyOp28
 70
     1
102
RTVSPropertyOp29
 70
     1
102
RTVSPropertyOp30
 70
     1
102
RTVSPropertyOp31
 70
     1
102
RTVSPropertyOp32
 70
     1
  0
XRECORD
  5
6FA
102
{ACAD_REACTORS
330
6F9
102
}
330
6F9
100
AcDbXrecord
280
     1
102
RTVSPropertyOp0
 70
     1
102
RTVSPropertyOp1
 70
     1
102
RTVSPropertyOp2
 70
     1
102
RTVSPropertyOp3
 70
     1
102
RTVSPropertyOp4
 70
     1
102
RTVSPropertyOp5
 70
     1
102
RTVSPropertyOp6
 70
     1
102
RTVSPropertyOp7
 70
     1
102
RTVSPropertyOp8
 70
     1
102
RTVSPropertyOp9
 70
     1
102
RTVSPropertyOp10
 70
     1
102
RTVSPropertyOp11
 70
     1
102
RTVSPropertyOp12
 70
     1
102
RTVSPropertyOp13
 70
     1
102
RTVSPropertyOp14
 70
     1
102
RTVSPropertyOp15
 70
     1
102
RTVSPropertyOp16
 70
     1
102
RTVSPropertyOp17
 70
     1
102
RTVSPropertyOp18
 70
     1
102
RTVSPropertyOp19
 70
     1
102
RTVSPropertyOp20
 70
     1
102
RTVSPropertyOp21
 70
     1
102
RTVSPropertyOp22
 70
     1
102
RTVSPropertyOp23
 70
     1
102
RTVSPropertyOp24
 70
     1
102
RTVSPropertyOp25
 70
     1
102
RTVSPropertyOp26
 70
     1
102
RTVSPropertyOp27
 70
     1
102
RTVSPropertyOp28
 70
     1
102
RTVSPropertyOp29
 70
     1
102
RTVSPropertyOp30
 70
     1
102
RTVSPropertyOp31
 70
     1
102
RTVSPropertyOp32
 70
     1
  0
ENDSEC
  0
EOF
