  0
SECTION
  2
HEADER
  9
$ACADVER
  1
AC1015
  9
$ACADMAINTVER
 70
    20
  9
$DWGCODEPAGE
  3
ANSI_1252
  9
$INSBASE
 10
0.0
 20
0.0
 30
0.0
  9
$EXTMIN
 10
68.58903129455597
 20
56.92606719359496
 30
0.0
  9
$EXTMAX
 10
698.8767107613671
 20
519.6778308713994
 30
0.0
  9
$LIMMIN
 10
0.0
 20
0.0
  9
$LIMMAX
 10
840.0
 20
594.0
  9
$ORTHOMODE
 70
     0
  9
$REGENMODE
 70
     1
  9
$FILLMODE
 70
     1
  9
$QTEXTMODE
 70
     0
  9
$MIRRTEXT
 70
     0
  9
$LTSCALE
 40
2.0
  9
$ATTMODE
 70
     1
  9
$TEXTSIZE
 40
0.2
  9
$TRACEWID
 40
0.05
  9
$TEXTSTYLE
  7
Standard
  9
$CLAYER
  8
0
  9
$CELTYPE
  6
ByLayer
  9
$CECOLOR
 62
   256
  9
$CELTSCALE
 40
1.0
  9
$DISPSILH
 70
     0
  9
$DIMSCALE
 40
1.0
  9
$DIMASZ
 40
1.799999999999999
  9
$DIMEXO
 40
0.0625
  9
$DIMDLI
 40
0.38
  9
$DIMRND
 40
0.0
  9
$DIMDLE
 40
0.0
  9
$DIMEXE
 40
0.18
  9
$DIMTP
 40
0.0
  9
$DIMTM
 40
0.0
  9
$DIMTXT
 40
0.3499999940395355
  9
$DIMCEN
 40
0.09
  9
$DIMTSZ
 40
0.0
  9
$DIMTOL
 70
     0
  9
$DIMLIM
 70
     0
  9
$DIMTIH
 70
     1
  9
$DIMTOH
 70
     1
  9
$DIMSE1
 70
     0
  9
$DIMSE2
 70
     0
  9
$DIMTAD
 70
     0
  9
$DIMZIN
 70
     0
  9
$DIMBLK
  1

  9
$DIMASO
 70
     1
  9
$DIMSHO
 70
     1
  9
$DIMPOST
  1

  9
$DIMAPOST
  1

  9
$DIMALT
 70
     0
  9
$DIMALTD
 70
     2
  9
$DIMALTF
 40
25.4
  9
$DIMLFAC
 40
1.0
  9
$DIMTOFL
 70
     0
  9
$DIMTVP
 40
0.0
  9
$DIMTIX
 70
     0
  9
$DIMSOXD
 70
     0
  9
$DIMSAH
 70
     0
  9
$DIMBLK1
  1

  9
$DIMBLK2
  1

  9
$DIMSTYLE
  2
Standard
  9
$DIMCLRD
 70
     0
  9
$DIMCLRE
 70
     0
  9
$DIMCLRT
 70
     0
  9
$DIMTFAC
 40
1.0
  9
$DIMGAP
 40
0.09
  9
$DIMJUST
 70
     0
  9
$DIMSD1
 70
     0
  9
$DIMSD2
 70
     0
  9
$DIMTOLJ
 70
     1
  9
$DIMTZIN
 70
     0
  9
$DIMALTZ
 70
     0
  9
$DIMALTTZ
 70
     0
  9
$DIMUPT
 70
     0
  9
$DIMDEC
 70
     4
  9
$DIMTDEC
 70
     4
  9
$DIMALTU
 70
     2
  9
$DIMALTTD
 70
     2
  9
$DIMTXSTY
  7
Standard
  9
$DIMAUNIT
 70
     0
  9
$DIMADEC
 70
     0
  9
$DIMALTRND
 40
0.0
  9
$DIMAZIN
 70
     0
  9
$DIMDSEP
 70
    46
  9
$DIMATFIT
 70
     3
  9
$DIMFRAC
 70
     0
  9
$DIMLDRBLK
  1

  9
$DIMLUNIT
 70
     2
  9
$DIMLWD
 70
    -2
  9
$DIMLWE
 70
    -2
  9
$DIMTMOVE
 70
     0
  9
$LUNITS
 70
     2
  9
$LUPREC
 70
     4
  9
$SKETCHINC
 40
0.1
  9
$FILLETRAD
 40
0.0
  9
$AUNITS
 70
     0
  9
$AUPREC
 70
     0
  9
$MENU
  1
.
  9
$ELEVATION
 40
0.0
  9
$PELEVATION
 40
0.0
  9
$THICKNESS
 40
0.0
  9
$LIMCHECK
 70
     0
  9
$CHAMFERA
 40
0.0
  9
$CHAMFERB
 40
0.0
  9
$CHAMFERC
 40
0.0
  9
$CHAMFERD
 40
0.0
  9
$SKPOLY
 70
     0
  9
$TDCREATE
 40
2456401.361177662
  9
$TDUCREATE
 40
2456401.277844329
  9
$TDUPDATE
 40
2456401.366185255
  9
$TDUUPDATE
 40
2456401.282851921
  9
$TDINDWG
 40
0.0001962037
  9
$TDUSRTIMER
 40
0.0001962037
  9
$USRTIMER
 70
     1
  9
$ANGBASE
 50
0.0
  9
$ANGDIR
 70
     0
  9
$PDMODE
 70
     0
  9
$PDSIZE
 40
0.0
  9
$PLINEWID
 40
0.0
  9
$SPLFRAME
 70
     0
  9
$SPLINETYPE
 70
     6
  9
$SPLINESEGS
 70
     8
  9
$HANDSEED
  5
6C5
  9
$SURFTAB1
 70
     6
  9
$SURFTAB2
 70
     6
  9
$SURFTYPE
 70
     6
  9
$SURFU
 70
     6
  9
$SURFV
 70
     6
  9
$UCSBASE
  2

  9
$UCSNAME
  2

  9
$UCSORG
 10
0.0
 20
0.0
 30
0.0
  9
$UCSXDIR
 10
1.0
 20
0.0
 30
0.0
  9
$UCSYDIR
 10
0.0
 20
1.0
 30
0.0
  9
$UCSORTHOREF
  2

  9
$UCSORTHOVIEW
 70
     0
  9
$UCSORGTOP
 10
0.0
 20
0.0
 30
0.0
  9
$UCSORGBOTTOM
 10
0.0
 20
0.0
 30
0.0
  9
$UCSORGLEFT
 10
0.0
 20
0.0
 30
0.0
  9
$UCSORGRIGHT
 10
0.0
 20
0.0
 30
0.0
  9
$UCSORGFRONT
 10
0.0
 20
0.0
 30
0.0
  9
$UCSORGBACK
 10
0.0
 20
0.0
 30
0.0
  9
$PUCSBASE
  2

  9
$PUCSNAME
  2

  9
$PUCSORG
 10
0.0
 20
0.0
 30
0.0
  9
$PUCSXDIR
 10
1.0
 20
0.0
 30
0.0
  9
$PUCSYDIR
 10
0.0
 20
1.0
 30
0.0
  9
$PUCSORTHOREF
  2

  9
$PUCSORTHOVIEW
 70
     0
  9
$PUCSORGTOP
 10
0.0
 20
0.0
 30
0.0
  9
$PUCSORGBOTTOM
 10
0.0
 20
0.0
 30
0.0
  9
$PUCSORGLEFT
 10
0.0
 20
0.0
 30
0.0
  9
$PUCSORGRIGHT
 10
0.0
 20
0.0
 30
0.0
  9
$PUCSORGFRONT
 10
0.0
 20
0.0
 30
0.0
  9
$PUCSORGBACK
 10
0.0
 20
0.0
 30
0.0
  9
$USERI1
 70
     0
  9
$USERI2
 70
     0
  9
$USERI3
 70
     0
  9
$USERI4
 70
     0
  9
$USERI5
 70
     0
  9
$USERR1
 40
0.0
  9
$USERR2
 40
0.0
  9
$USERR3
 40
0.0
  9
$USERR4
 40
0.0
  9
$USERR5
 40
0.0
  9
$WORLDVIEW
 70
     1
  9
$SHADEDGE
 70
     3
  9
$SHADEDIF
 70
    70
  9
$TILEMODE
 70
     1
  9
$MAXACTVP
 70
    64
  9
$PINSBASE
 10
0.0
 20
0.0
 30
0.0
  9
$PLIMCHECK
 70
     0
  9
$PEXTMIN
 10
0.0
 20
0.0
 30
0.0
  9
$PEXTMAX
 10
840.0
 20
594.0
 30
0.0
  9
$PLIMMIN
 10
0.0
 20
0.0
  9
$PLIMMAX
 10
840.0
 20
594.0
  9
$UNITMODE
 70
     0
  9
$VISRETAIN
 70
     1
  9
$PLINEGEN
 70
     0
  9
$PSLTSCALE
 70
     1
  9
$TREEDEPTH
 70
  3020
  9
$CMLSTYLE
  2
Standard
  9
$CMLJUST
 70
     0
  9
$CMLSCALE
 40
1.0
  9
$PROXYGRAPHICS
 70
     1
  9
$MEASUREMENT
 70
     1
  9
$CELWEIGHT
370
    -1
  9
$ENDCAPS
280
     0
  9
$JOINSTYLE
280
     0
  9
$LWDISPLAY
290
     0
  9
$INSUNITS
 70
     4
  9
$HYPERLINKBASE
  1

  9
$STYLESHEET
  1

  9
$XEDIT
290
     1
  9
$CEPSNTYPE
380
     0
  9
$PSTYLEMODE
290
     1
  9
$FINGERPRINTGUID
  2
{65038B8F-07DC-4DD3-B7C6-7E835E893688}
  9
$VERSIONGUID
  2
{7AAC52A9-68F8-410E-942C-D8428CB14FFF}
  9
$EXTNAMES
290
     1
  9
$PSVPSCALE
 40
0.0
  9
$OLESTARTUP
290
     0
  0
ENDSEC
  0
SECTION
  2
CLASSES
  0
CLASS
  1
ACDBDICTIONARYWDFLT
  2
AcDbDictionaryWithDefault
  3
ObjectDBX Classes
 90
        0
280
     0
281
     0
  0
CLASS
  1
MATERIAL
  2
AcDbMaterial
  3
ObjectDBX Classes
 90
     1153
280
     0
281
     0
  0
CLASS
  1
VISUALSTYLE
  2
AcDbVisualStyle
  3
ObjectDBX Classes
 90
     4095
280
     0
281
     0
  0
CLASS
  1
SCALE
  2
AcDbScale
  3
ObjectDBX Classes
 90
     1153
280
     0
281
     0
  0
CLASS
  1
TABLESTYLE
  2
AcDbTableStyle
  3
ObjectDBX Classes
 90
     4095
280
     0
281
     0
  0
CLASS
  1
MLEADERSTYLE
  2
AcDbMLeaderStyle
  3
ACDB_MLEADERSTYLE_CLASS
 90
     4095
280
     0
281
     0
  0
CLASS
  1
DICTIONARYVAR
  2
AcDbDictionaryVar
  3
ObjectDBX Classes
 90
        0
280
     0
281
     0
  0
CLASS
  1
ACME_DOCUMENT
  2
AcMeDbDoc
  3
AcMeServices
 90
     1024
280
     0
281
     0
  0
CLASS
  1
AMGSETTINGSOBJ
  2
AmgSettingsObj
  3
"AcadM|Product Description: AutoCAD Mechanical|Company: Autodesk, Inc."
 90
     1024
280
     0
281
     0
  0
CLASS
  1
ACMESCOPE
  2
AcMeScope
  3
AcMeServices
 90
     1024
280
     0
281
     0
  0
CLASS
  1
ACMECOMMANDHISTORY
  2
AcMeCommandHistory
  3
AcMeServices
 90
     1024
280
     0
281
     0
  0
CLASS
  1
ACIMSYSVARMAN
  2
AcImSysVarManager
  3
AcMeServices
 90
     1024
280
     0
281
     0
  0
CLASS
  1
ACIMINTSYSVAR
  2
AcImIntSysVar
  3
AcMeServices
 90
     1024
280
     0
281
     0
  0
CLASS
  1
ACMESTATEMGR
  2
AcMeStateMgr
  3
AcMeServices
 90
     1024
280
     0
281
     0
  0
CLASS
  1
ACDBENTITYCACHE
  2
AcMeEntityCache
  3
AcMeServices
 90
     1024
280
     0
281
     0
  0
CLASS
  1
ACGREFMASTER
  2
AcGrefMaster
  3
AcAttribServices
 90
     1024
280
     0
281
     0
  0
CLASS
  1
ACME_DATABASE
  2
AcMeDbDatabase
  3
AcMeServices
 90
     1024
280
     0
281
     0
  0
CLASS
  1
ACRFINSADJUSTERMGR
  2
AcRfInsAdjusterMgr
  3
AcMeServices
 90
     1024
280
     0
281
     0
  0
CLASS
  1
ACGREFACADMASTER
  2
AcGrefacadMaster
  3
AcGrefServices
 90
     1024
280
     0
281
     0
  0
CLASS
  1
AMDTMENUSTATEMGR
  2
AmdtMenuStateMgr
  3
McadcomServices
 90
     1024
280
     0
281
     0
  0
CLASS
  1
AMDTMCOMMENUSTATE
  2
AmdtMcomMenuState
  3
McadcomServices
 90
     1024
280
     0
281
     0
  0
CLASS
  1
AMIMASTER
  2
AmiMaster
  3
AmiServices
 90
     1024
280
     0
281
     0
  0
CLASS
  1
MAPIAMMOUDLE
  2
MApiAmModule
  3
MApiAmServices
 90
     1024
280
     0
281
     0
  0
CLASS
  1
ACIMSTRSYSVAR
  2
AcImStrSysVar
  3
AcMeServices
 90
     1024
280
     0
281
     0
  0
CLASS
  1
AMDTAMMENUSTATE
  2
AmdtAmMenuState
  3
DesignerAssemblies
 90
     1024
280
     0
281
     0
  0
CLASS
  1
ACAMPROJECT
  2
AcAmProject
  3
DesignerAssemblies
 90
     1024
280
     0
281
     0
  0
CLASS
  1
ACAMGRCOMPDEF
  2
AcAmGrCompDef
  3
DesignerAssemblies
 90
     1024
280
     0
281
     0
  0
CLASS
  1
ACAMCOMPDEF
  2
AcAmCompDef
  3
DesignerAssemblies
 90
     1024
280
     0
281
     0
  0
CLASS
  1
ACAMCOMPDEFMGR
  2
AcAmCompDefMgr
  3
DesignerAssemblies
 90
     1024
280
     0
281
     0
  0
CLASS
  1
AMCONTEXTMGR
  2
AcAmContextMgr
  3
DesignerAssemblies
 90
     1024
280
     0
281
     0
  0
CLASS
  1
ACAMCONTEXTMODELER
  2
AcAmContextModeler
  3
DesignerAssemblies
 90
     1024
280
     0
281
     0
  0
CLASS
  1
ACMDATADICTIONARY
  2
AcmDataDictionary
  3
"AcmSymBB|Product Description: AutoCAD Mechanical|Company: Autodesk, Inc."
 90
     1024
280
     0
281
     0
  0
CLASS
  1
ACAMGRCOMPDEFSET
  2
AcAmGrCompDefSet
  3
DesignerAssemblies
 90
     1024
280
     0
281
     0
  0
CLASS
  1
AMDTBROWSERDBTAB
  2
AmdtBrowserDbTab
  3
McadcomServices
 90
     1024
280
     0
281
     0
  0
CLASS
  1
CBROWSERAPPOBJECT
  2
CBrowserAppObject
  3
McadcomServices
 90
     1024
280
     0
281
     0
  0
CLASS
  1
DM_PLACEHOLDER
  2
AcDmSelsetPlaceholder
  3
McadcomServices
 90
     1024
280
     0
281
     0
  0
CLASS
  1
EXACXREFPANELOBJECT
  2
ExAcXREFPanelObject
  3
EXAC_ESW
 90
     1025
280
     0
281
     0
  0
CLASS
  1
NPOCOLLECTION
  2
AcDbImpNonPersistentObjectsCollection
  3
ObjectDBX Classes
 90
     1153
280
     0
281
     0
  0
CLASS
  1
ACMSTANDARDISO
  2
AcmStandardISO
  3
"Amdt_StdImp|Product Description: AutoCAD Mechanical|Company: Autodesk, Inc."
 90
     1024
280
     0
281
     0
  0
CLASS
  1
AMDTEDGESTANDARDISO13715
  2
AmdtEdgeStdISO13715
  3
"Amdt_StdImp|Product Description: AutoCAD Mechanical|Company: Autodesk, Inc."
 90
     1024
280
     0
281
     0
  0
CLASS
  1
ACMSURFSTANDARDISO2002
  2
AcmSurfTextStdISO2002
  3
"Amdt_StdImp|Product Description: AutoCAD Mechanical|Company: Autodesk, Inc."
 90
     1024
280
     0
281
     0
  0
CLASS
  1
ACMFCFSTANDARDISO2004
  2
AcmFCFStdISO2004
  3
"Amdt_StdImp|Product Description: AutoCAD Mechanical|Company: Autodesk, Inc."
 90
     1024
280
     0
281
     0
  0
CLASS
  1
ACMWELDSTANDARDISO
  2
AcmWeldingStdISO
  3
"Amdt_StdImp|Product Description: AutoCAD Mechanical|Company: Autodesk, Inc."
 90
     1024
280
     0
281
     0
  0
CLASS
  1
ACMIDSTANDARDISO2004
  2
AcmIdStdISO2004
  3
"Amdt_StdImp|Product Description: AutoCAD Mechanical|Company: Autodesk, Inc."
 90
     1024
280
     0
281
     0
  0
CLASS
  1
ACMDATUMSTANDARDISO
  2
AcmDatumStdISO
  3
"Amdt_StdImp|Product Description: AutoCAD Mechanical|Company: Autodesk, Inc."
 90
     1024
280
     0
281
     0
  0
CLASS
  1
ACMBOMSTANDARDISO
  2
AcmBOMStdISO
  3
"Amdt_StdImp|Product Description: AutoCAD Mechanical|Company: Autodesk, Inc."
 90
     1024
280
     0
281
     0
  0
CLASS
  1
ACMDETAILSTANDARDISO
  2
AmdtDetailSymStdISO
  3
"Amdt_StdImp|Product Description: AutoCAD Mechanical|Company: Autodesk, Inc."
 90
     1024
280
     0
281
     0
  0
CLASS
  1
ACMSECTIONSTANDARDISO2001
  2
AmdtSectionSymStdISO2001
  3
"Amdt_StdImp|Product Description: AutoCAD Mechanical|Company: Autodesk, Inc."
 90
     1024
280
     0
281
     0
  0
CLASS
  1
ACMCENTERLINESTANDARDISO
  2
AmdtCenterLineStdISO
  3
"Amdt_StdImp|Product Description: AutoCAD Mechanical|Company: Autodesk, Inc."
 90
     1024
280
     0
281
     0
  0
CLASS
  1
ACMTHREADLINESTANDARDISO
  2
AmdtThreadLineStdISO
  3
"Amdt_StdImp|Product Description: AutoCAD Mechanical|Company: Autodesk, Inc."
 90
     1024
280
     0
281
     0
  0
CLASS
  1
ACMNOTESTANDARDISO
  2
AmdtNoteStdISO
  3
"Amdt_StdImp|Product Description: AutoCAD Mechanical|Company: Autodesk, Inc."
 90
     1024
280
     0
281
     0
  0
CLASS
  1
ACMTAPERSTANDARDISO
  2
AcmTaperStdISO
  3
"Amdt_StdImp|Product Description: AutoCAD Mechanical|Company: Autodesk, Inc."
 90
     1024
280
     0
281
     0
  0
CLASS
  1
ACMANOOTATIONVIEWSTANDARDISO
  2
AmdtAnViewStdISO
  3
"Amdt_StdImp|Product Description: AutoCAD Mechanical|Company: Autodesk, Inc."
 90
     1024
280
     0
281
     0
  0
CLASS
  1
ACAMGLAYSTD
  2
AcAmgLayStd
  3
"AmgLay|Product Description: AutoCAD Mechanical|Company: Autodesk, Inc."
 90
     1024
280
     0
281
     0
  0
CLASS
  1
ACAMGDIMSTD
  2
AcAmgDimStd
  3
"AmgDim|Product Description: AutoCAD Mechanical|Company: Autodesk, Inc."
 90
     1024
280
     0
281
     0
  0
CLASS
  1
AMGOBJPROPCFG
  2
AmgObjPropCfg
  3
"AmgLay|Product Description: AutoCAD Mechanical|Company: Autodesk, Inc."
 90
     1025
280
     0
281
     0
  0
CLASS
  1
ACAMGHOLECHARTSTDISO
  2
AcAmgHoleChartStdISO
  3
AmgDim|Product Description: AutoCAD Mechanical|Company: Autodesk, Inc.
 90
     1024
280
     0
281
     0
  0
CLASS
  1
ACAMGTITLESTD
  2
AcAmgTitleStd
  3
"AmgTitle|Product Description: AutoCAD Mechanical|Company: Autodesk, Inc."
 90
     4095
280
     0
281
     0
  0
CLASS
  1
AMDTNOTETEMPLATEDB
  2
AmdtNoteTemplateDB
  3
AcmSymBB|Product Description: AutoCAD Mechanical|Company: Autodesk, Inc.
 90
     1024
280
     0
281
     0
  0
CLASS
  1
CELLSTYLEMAP
  2
AcDbCellStyleMap
  3
ObjectDBX Classes
 90
     1152
280
     0
281
     0
  0
CLASS
  1
ACDBPLACEHOLDER
  2
AcDbPlaceHolder
  3
ObjectDBX Classes
 90
        0
280
     0
281
     0
  0
CLASS
  1
LAYOUT
  2
AcDbLayout
  3
ObjectDBX Classes
 90
        0
280
     0
281
     0
  0
ENDSEC
  0
SECTION
  2
TABLES
  0
TABLE
  2
VPORT
  5
8
330
0
100
AcDbSymbolTable
 70
     1
  0
VPORT
  5
57
330
8
100
AcDbSymbolTableRecord
100
AcDbViewportTableRecord
  2
*Active
 70
     0
 10
0.0
 20
0.0
 11
1.0
 21
1.0
 12
573.8830049261083
 22
297.0
 13
0.0
 23
0.0
 14
1.0
 24
1.0
 15
0.0
 25
0.0
 16
0.0
 26
0.0
 36
1.0
 17
0.0
 27
0.0
 37
0.0
 40
594.0
 41
1.932266009852216
 42
50.0
 43
0.0
 44
0.0
 50
0.0
 51
0.0
 71
     0
 72
   100
 73
     1
 74
     1
 75
     0
 76
     0
 77
     0
 78
     0
281
     0
 65
     1
110
0.0
120
0.0
130
0.0
111
1.0
121
0.0
131
0.0
112
0.0
122
1.0
132
0.0
 79
     0
146
0.0
1001
ACAD_NAV_VCDISPLAY
1070
     3
  0
ENDTAB
  0
TABLE
  2
LTYPE
  5
5
330
0
100
AcDbSymbolTable
 70
    69
  0
LTYPE
  5
5B
330
5
100
AcDbSymbolTableRecord
100
AcDbLinetypeTableRecord
  2
ByBlock
 70
     0
  3

 72
    65
 73
     0
 40
0.0
  0
LTYPE
  5
5C
330
5
100
AcDbSymbolTableRecord
100
AcDbLinetypeTableRecord
  2
ByLayer
 70
     0
  3

 72
    65
 73
     0
 40
0.0
  0
LTYPE
  5
5D
330
5
100
AcDbSymbolTableRecord
100
AcDbLinetypeTableRecord
  2
Continuous
 70
     0
  3
Solid line
 72
    65
 73
     0
 40
0.0
  0
LTYPE
  5
74
330
5
100
AcDbSymbolTableRecord
100
AcDbLinetypeTableRecord
  2
Section_View_Lines
 70
     0
  3
Section View Lines
 72
    65
 73
     4
 40
0.8406
 49
0.6614
 74
     0
 49
-0.0827
 74
     0
 49
0.0138
 74
     0
 49
-0.0827
 74
     0
  0
LTYPE
  5
75
330
5
100
AcDbSymbolTableRecord
100
AcDbLinetypeTableRecord
  2
CHAIN
 70
     0
  3
Chain ____ _ ____ _ ____ _ ____ _ ____ _ ____
 72
    65
 73
     4
 40
0.3543
 49
0.2362
 74
     0
 49
-0.0295
 74
     0
 49
0.0591
 74
     0
 49
-0.0295
 74
     0
  0
LTYPE
  5
76
330
5
100
AcDbSymbolTableRecord
100
AcDbLinetypeTableRecord
  2
DASH_DOT
 70
     0
  3
Dash dot _._._._._._._._._._._._._._._.
 72
    65
 73
     4
 40
0.182
 49
0.1181
 74
     0
 49
-0.0295
 74
     0
 49
0.0049
 74
     0
 49
-0.0295
 74
     0
  0
LTYPE
  5
77
330
5
100
AcDbSymbolTableRecord
100
AcDbLinetypeTableRecord
  2
DASH_DOUBLE_DOT
 70
     0
  3
Dash Double Dot __ __ . __ __ . __ __ . __ _
 72
    65
 73
     6
 40
0.2164
 49
0.1181
 74
     0
 49
-0.0295
 74
     0
 49
0.0049
 74
     0
 49
-0.0295
 74
     0
 49
0.0049
 74
     0
 49
-0.0295
 74
     0
  0
LTYPE
  5
78
330
5
100
AcDbSymbolTableRecord
100
AcDbLinetypeTableRecord
  2
DASH_TRIPLE_DOT
 70
     0
  3
Dash Triple-Dot _ . . . _ . . . _ . . . _
 72
    65
 73
     8
 40
0.2508
 49
0.1181
 74
     0
 49
-0.0295
 74
     0
 49
0.0049
 74
     0
 49
-0.0295
 74
     0
 49
0.0049
 74
     0
 49
-0.0295
 74
     0
 49
0.0049
 74
     0
 49
-0.0295
 74
     0
  0
LTYPE
  5
79
330
5
100
AcDbSymbolTableRecord
100
AcDbLinetypeTableRecord
  2
DASHED
 70
     0
  3
Dashed __ __ __ __ __ __ __ __ __ __ __ __ __ _
 72
    65
 73
     2
 40
0.2068
 49
0.1655
 74
     0
 49
-0.0413
 74
     0
  0
LTYPE
  5
7A
330
5
100
AcDbSymbolTableRecord
100
AcDbLinetypeTableRecord
  2
DASHED_SPACE
 70
     0
  3
Dashed Space __ __ __ __ __ __ __ __ __ __ __ _
 72
    65
 73
     2
 40
0.2067
 49
0.1654
 74
     0
 49
-0.0413
 74
     0
  0
LTYPE
  5
7B
330
5
100
AcDbSymbolTableRecord
100
AcDbLinetypeTableRecord
  2
DOTTED
 70
     0
  3
Dotted . . . . . . . . . . . . . . . . . . . . 
 72
    65
 73
     2
 40
0.0481
 49
0.0068
 74
     0
 49
-0.0413
 74
     0
  0
LTYPE
  5
7C
330
5
100
AcDbSymbolTableRecord
100
AcDbLinetypeTableRecord
  2
DOUBLE_DASH_CHAIN
 70
     0
  3
Double Dash Chain ___ _ _ ___ _ _ ___ _ _ ___ _
 72
    65
 73
     6
 40
1.240299999999999
 49
0.6614
 74
     0
 49
-0.0827
 74
     0
 49
0.1654
 74
     0
 49
-0.0827
 74
     0
 49
0.1654
 74
     0
 49
-0.0827
 74
     0
  0
LTYPE
  5
7D
330
5
100
AcDbSymbolTableRecord
100
AcDbLinetypeTableRecord
  2
DOUBLE_DASH_DOT
 70
     0
  3
Double Dash Dot __ __ . __ __ . __ __ . __ _
 72
    65
 73
     6
 40
0.3296
 49
0.1181
 74
     0
 49
-0.0295
 74
     0
 49
0.1181
 74
     0
 49
-0.0295
 74
     0
 49
0.0049
 74
     0
 49
-0.0295
 74
     0
  0
LTYPE
  5
7E
330
5
100
AcDbSymbolTableRecord
100
AcDbLinetypeTableRecord
  2
DOUBLE_DASH_DOUBLE_DOT
 70
     0
  3
Double Dash Double Dot _ _ . . _ _ . . _ _
 72
    65
 73
     8
 40
0.364
 49
0.1181
 74
     0
 49
-0.0295
 74
     0
 49
0.1181
 74
     0
 49
-0.0295
 74
     0
 49
0.0049
 74
     0
 49
-0.0295
 74
     0
 49
0.0049
 74
     0
 49
-0.0295
 74
     0
  0
LTYPE
  5
7F
330
5
100
AcDbSymbolTableRecord
100
AcDbLinetypeTableRecord
  2
DOUBLE_DASH_TRIPLE_DOT
 70
     0
  3
Double Dash Triple Dot __ __ . . . __ __ . . .
 72
    65
 73
    10
 40
0.3984
 49
0.1181
 74
     0
 49
-0.0295
 74
     0
 49
0.1181
 74
     0
 49
-0.0295
 74
     0
 49
0.0049
 74
     0
 49
-0.0295
 74
     0
 49
0.0049
 74
     0
 49
-0.0295
 74
     0
 49
0.0049
 74
     0
 49
-0.0295
 74
     0
  0
LTYPE
  5
80
330
5
100
AcDbSymbolTableRecord
100
AcDbLinetypeTableRecord
  2
LONG_DASH_DOTTED
 70
     0
  3
Long Dash Dotted ____ . ____ . ____ . ____ . _
 72
    65
 73
     4
 40
0.3001
 49
0.2362
 74
     0
 49
-0.0295
 74
     0
 49
0.0049
 74
     0
 49
-0.0295
 74
     0
  0
LTYPE
  5
81
330
5
100
AcDbSymbolTableRecord
100
AcDbLinetypeTableRecord
  2
LONG_DASH_DOUBLE_DOT
 70
     0
  3
Long Dash Double Dot ____ . . ____ . . ____ . .
 72
    65
 73
     6
 40
0.3345
 49
0.2362
 74
     0
 49
-0.0295
 74
     0
 49
0.0049
 74
     0
 49
-0.0295
 74
     0
 49
0.0049
 74
     0
 49
-0.0295
 74
     0
  0
LTYPE
  5
82
330
5
100
AcDbSymbolTableRecord
100
AcDbLinetypeTableRecord
  2
LONG_DASH_TRIPLE_DOT
 70
     0
  3
Long Dash Triple Dot ____ ... ____ ... ____
 72
    65
 73
     8
 40
0.3689
 49
0.2362
 74
     0
 49
-0.0295
 74
     0
 49
0.0049
 74
     0
 49
-0.0295
 74
     0
 49
0.0049
 74
     0
 49
-0.0295
 74
     0
 49
0.0049
 74
     0
 49
-0.0295
 74
     0
  0
LTYPE
  5
83
330
5
100
AcDbSymbolTableRecord
100
AcDbLinetypeTableRecord
  2
BORDER
 70
     0
  3
Border __ __ . __ __ . __ __ . __ __ . __ __ .
 72
    65
 73
     6
 40
44.45
 49
12.7
 74
     0
 49
-6.349999999999999
 74
     0
 49
12.7
 74
     0
 49
-6.349999999999999
 74
     0
 49
0.0
 74
     0
 49
-6.349999999999999
 74
     0
  0
LTYPE
  5
84
330
5
100
AcDbSymbolTableRecord
100
AcDbLinetypeTableRecord
  2
BORDER2
 70
     0
  3
Border (.5x) __.__.__.__.__.__.__.__.__.__.__.
 72
    65
 73
     6
 40
22.225
 49
6.349999999999999
 74
     0
 49
-3.174999999999999
 74
     0
 49
6.349999999999999
 74
     0
 49
-3.174999999999999
 74
     0
 49
0.0
 74
     0
 49
-3.174999999999999
 74
     0
  0
LTYPE
  5
85
330
5
100
AcDbSymbolTableRecord
100
AcDbLinetypeTableRecord
  2
BORDERX2
 70
     0
  3
Border (2x) ____  ____  .  ____  ____  .  ___
 72
    65
 73
     6
 40
88.9
 49
25.4
 74
     0
 49
-12.7
 74
     0
 49
25.4
 74
     0
 49
-12.7
 74
     0
 49
0.0
 74
     0
 49
-12.7
 74
     0
  0
LTYPE
  5
86
330
5
100
AcDbSymbolTableRecord
100
AcDbLinetypeTableRecord
  2
CENTER
 70
     0
  3
Center ____ _ ____ _ ____ _ ____ _ ____ _ ____
 72
    65
 73
     4
 40
50.8
 49
31.75
 74
     0
 49
-6.349999999999999
 74
     0
 49
6.349999999999999
 74
     0
 49
-6.349999999999999
 74
     0
  0
LTYPE
  5
87
330
5
100
AcDbSymbolTableRecord
100
AcDbLinetypeTableRecord
  2
CENTER2
 70
     0
  3
Center (.5x) ___ _ ___ _ ___ _ ___ _ ___ _ ___
 72
    65
 73
     4
 40
28.575
 49
19.05
 74
     0
 49
-3.174999999999999
 74
     0
 49
3.174999999999999
 74
     0
 49
-3.174999999999999
 74
     0
  0
LTYPE
  5
88
330
5
100
AcDbSymbolTableRecord
100
AcDbLinetypeTableRecord
  2
CENTERX2
 70
     0
  3
Center (2x) ________  __  ________  __  _____
 72
    65
 73
     4
 40
101.6
 49
63.5
 74
     0
 49
-12.7
 74
     0
 49
12.7
 74
     0
 49
-12.7
 74
     0
  0
LTYPE
  5
89
330
5
100
AcDbSymbolTableRecord
100
AcDbLinetypeTableRecord
  2
DASHDOT2
 70
     0
  3
Dash dot (.5x) _._._._._._._._._._._._._._._.
 72
    65
 73
     4
 40
12.7
 49
6.349999999999999
 74
     0
 49
-3.174999999999999
 74
     0
 49
0.0
 74
     0
 49
-3.174999999999999
 74
     0
  0
LTYPE
  5
8A
330
5
100
AcDbSymbolTableRecord
100
AcDbLinetypeTableRecord
  2
DASHDOTX2
 70
     0
  3
Dash dot (2x) ____  .  ____  .  ____  .  ___
 72
    65
 73
     4
 40
50.8
 49
25.4
 74
     0
 49
-12.7
 74
     0
 49
0.0
 74
     0
 49
-12.7
 74
     0
  0
LTYPE
  5
8B
330
5
100
AcDbSymbolTableRecord
100
AcDbLinetypeTableRecord
  2
DASHED2
 70
     0
  3
Dashed (.5x) _ _ _ _ _ _ _ _ _ _ _ _ _ _ _ _ _
 72
    65
 73
     2
 40
9.524999999999998
 49
6.349999999999999
 74
     0
 49
-3.174999999999999
 74
     0
  0
LTYPE
  5
8C
330
5
100
AcDbSymbolTableRecord
100
AcDbLinetypeTableRecord
  2
DASHEDX2
 70
     0
  3
Dashed (2x) ____  ____  ____  ____  ____  ___
 72
    65
 73
     2
 40
38.1
 49
25.4
 74
     0
 49
-12.7
 74
     0
  0
LTYPE
  5
8D
330
5
100
AcDbSymbolTableRecord
100
AcDbLinetypeTableRecord
  2
DIVIDE
 70
     0
  3
Divide ____ . . ____ . . ____ . . ____ . . ____
 72
    65
 73
     6
 40
31.75
 49
12.7
 74
     0
 49
-6.349999999999999
 74
     0
 49
0.0
 74
     0
 49
-6.349999999999999
 74
     0
 49
0.0
 74
     0
 49
-6.349999999999999
 74
     0
  0
LTYPE
  5
8E
330
5
100
AcDbSymbolTableRecord
100
AcDbLinetypeTableRecord
  2
DIVIDE2
 70
     0
  3
Divide (.5x) __..__..__..__..__..__..__..__.._
 72
    65
 73
     6
 40
15.875
 49
6.349999999999999
 74
     0
 49
-3.174999999999999
 74
     0
 49
0.0
 74
     0
 49
-3.174999999999999
 74
     0
 49
0.0
 74
     0
 49
-3.174999999999999
 74
     0
  0
LTYPE
  5
8F
330
5
100
AcDbSymbolTableRecord
100
AcDbLinetypeTableRecord
  2
DIVIDEX2
 70
     0
  3
Divide (2x) ________  .  .  ________  .  .  _
 72
    65
 73
     6
 40
63.49999999999999
 49
25.4
 74
     0
 49
-12.7
 74
     0
 49
0.0
 74
     0
 49
-12.7
 74
     0
 49
0.0
 74
     0
 49
-12.7
 74
     0
  0
LTYPE
  5
90
330
5
100
AcDbSymbolTableRecord
100
AcDbLinetypeTableRecord
  2
DOT
 70
     0
  3
Dot . . . . . . . . . . . . . . . . . . . . . .
 72
    65
 73
     2
 40
6.349999999999999
 49
0.0
 74
     0
 49
-6.349999999999999
 74
     0
  0
LTYPE
  5
91
330
5
100
AcDbSymbolTableRecord
100
AcDbLinetypeTableRecord
  2
DOT2
 70
     0
  3
Dot (.5x) .....................................
 72
    65
 73
     2
 40
3.174999999999999
 49
0.0
 74
     0
 49
-3.174999999999999
 74
     0
  0
LTYPE
  5
92
330
5
100
AcDbSymbolTableRecord
100
AcDbLinetypeTableRecord
  2
DOTX2
 70
     0
  3
Dot (2x) .  .  .  .  .  .  .  .  .  .  .  .  . 
 72
    65
 73
     2
 40
12.7
 49
0.0
 74
     0
 49
-12.7
 74
     0
  0
LTYPE
  5
93
330
5
100
AcDbSymbolTableRecord
100
AcDbLinetypeTableRecord
  2
HIDDEN
 70
     0
  3
Hidden __ __ __ __ __ __ __ __ __ __ __ __ __ _
 72
    65
 73
     2
 40
9.524999999999998
 49
6.349999999999999
 74
     0
 49
-3.174999999999999
 74
     0
  0
LTYPE
  5
94
330
5
100
AcDbSymbolTableRecord
100
AcDbLinetypeTableRecord
  2
HIDDEN2
 70
     0
  3
Hidden (.5x) _ _ _ _ _ _ _ _ _ _ _ _ _ _ _ _ _
 72
    65
 73
     2
 40
4.762499999999999
 49
3.174999999999999
 74
     0
 49
-1.587499999999999
 74
     0
  0
LTYPE
  5
95
330
5
100
AcDbSymbolTableRecord
100
AcDbLinetypeTableRecord
  2
HIDDENX2
 70
     0
  3
Hidden (2x) ____ ____ ____ ____ ____ ____ ____
 72
    65
 73
     2
 40
19.05
 49
12.7
 74
     0
 49
-6.349999999999999
 74
     0
  0
LTYPE
  5
96
330
5
100
AcDbSymbolTableRecord
100
AcDbLinetypeTableRecord
  2
PHANTOM
 70
     0
  3
Phantom ______  __  __  ______  __  __  ______
 72
    65
 73
     6
 40
63.5
 49
31.75
 74
     0
 49
-6.349999999999999
 74
     0
 49
6.349999999999999
 74
     0
 49
-6.349999999999999
 74
     0
 49
6.349999999999999
 74
     0
 49
-6.349999999999999
 74
     0
  0
LTYPE
  5
97
330
5
100
AcDbSymbolTableRecord
100
AcDbLinetypeTableRecord
  2
PHANTOM2
 70
     0
  3
Phantom (.5x) ___ _ _ ___ _ _ ___ _ _ ___ _ _
 72
    65
 73
     6
 40
31.75
 49
15.875
 74
     0
 49
-3.174999999999999
 74
     0
 49
3.174999999999999
 74
     0
 49
-3.174999999999999
 74
     0
 49
3.174999999999999
 74
     0
 49
-3.174999999999999
 74
     0
  0
LTYPE
  5
98
330
5
100
AcDbSymbolTableRecord
100
AcDbLinetypeTableRecord
  2
PHANTOMX2
 70
     0
  3
Phantom (2x) ____________    ____    ____   _
 72
    65
 73
     6
 40
127.0
 49
63.5
 74
     0
 49
-12.7
 74
     0
 49
12.7
 74
     0
 49
-12.7
 74
     0
 49
12.7
 74
     0
 49
-12.7
 74
     0
  0
LTYPE
  5
99
330
5
100
AcDbSymbolTableRecord
100
AcDbLinetypeTableRecord
  2
ACAD_ISO02W100
 70
     0
  3
ISO dash __ __ __ __ __ __ __ __ __ __ __ __ __
 72
    65
 73
     2
 40
15.0
 49
12.0
 74
     0
 49
-3.0
 74
     0
  0
LTYPE
  5
9A
330
5
100
AcDbSymbolTableRecord
100
AcDbLinetypeTableRecord
  2
ACAD_ISO03W100
 70
     0
  3
ISO dash space __    __    __    __    __    __
 72
    65
 73
     2
 40
30.0
 49
12.0
 74
     0
 49
-18.0
 74
     0
  0
LTYPE
  5
9B
330
5
100
AcDbSymbolTableRecord
100
AcDbLinetypeTableRecord
  2
ACAD_ISO04W100
 70
     0
  3
ISO long-dash dot ____ . ____ . ____ . ____ . _
 72
    65
 73
     4
 40
30.0
 49
24.0
 74
     0
 49
-3.0
 74
     0
 49
0.0
 74
     0
 49
-3.0
 74
     0
  0
LTYPE
  5
9C
330
5
100
AcDbSymbolTableRecord
100
AcDbLinetypeTableRecord
  2
ACAD_ISO05W100
 70
     0
  3
ISO long-dash double-dot ____ .. ____ .. ____ .
 72
    65
 73
     6
 40
33.0
 49
24.0
 74
     0
 49
-3.0
 74
     0
 49
0.0
 74
     0
 49
-3.0
 74
     0
 49
0.0
 74
     0
 49
-3.0
 74
     0
  0
LTYPE
  5
9D
330
5
100
AcDbSymbolTableRecord
100
AcDbLinetypeTableRecord
  2
ACAD_ISO06W100
 70
     0
  3
ISO long-dash triple-dot ____ ... ____ ... ____
 72
    65
 73
     8
 40
36.0
 49
24.0
 74
     0
 49
-3.0
 74
     0
 49
0.0
 74
     0
 49
-3.0
 74
     0
 49
0.0
 74
     0
 49
-3.0
 74
     0
 49
0.0
 74
     0
 49
-3.0
 74
     0
  0
LTYPE
  5
9E
330
5
100
AcDbSymbolTableRecord
100
AcDbLinetypeTableRecord
  2
ACAD_ISO07W100
 70
     0
  3
ISO dot . . . . . . . . . . . . . . . . . . . .
 72
    65
 73
     2
 40
3.0
 49
0.0
 74
     0
 49
-3.0
 74
     0
  0
LTYPE
  5
9F
330
5
100
AcDbSymbolTableRecord
100
AcDbLinetypeTableRecord
  2
ACAD_ISO08W100
 70
     0
  3
ISO long-dash short-dash ____ __ ____ __ ____ _
 72
    65
 73
     4
 40
36.0
 49
24.0
 74
     0
 49
-3.0
 74
     0
 49
6.0
 74
     0
 49
-3.0
 74
     0
  0
LTYPE
  5
A0
330
5
100
AcDbSymbolTableRecord
100
AcDbLinetypeTableRecord
  2
ACAD_ISO09W100
 70
     0
  3
ISO long-dash double-short-dash ____ __ __ ____
 72
    65
 73
     6
 40
45.0
 49
24.0
 74
     0
 49
-3.0
 74
     0
 49
6.0
 74
     0
 49
-3.0
 74
     0
 49
6.0
 74
     0
 49
-3.0
 74
     0
  0
LTYPE
  5
A1
330
5
100
AcDbSymbolTableRecord
100
AcDbLinetypeTableRecord
  2
ACAD_ISO10W100
 70
     0
  3
ISO dash dot __ . __ . __ . __ . __ . __ . __ .
 72
    65
 73
     4
 40
18.0
 49
12.0
 74
     0
 49
-3.0
 74
     0
 49
0.0
 74
     0
 49
-3.0
 74
     0
  0
LTYPE
  5
A2
330
5
100
AcDbSymbolTableRecord
100
AcDbLinetypeTableRecord
  2
ACAD_ISO11W100
 70
     0
  3
ISO double-dash dot __ __ . __ __ . __ __ . __ 
 72
    65
 73
     6
 40
33.0
 49
12.0
 74
     0
 49
-3.0
 74
     0
 49
12.0
 74
     0
 49
-3.0
 74
     0
 49
0.0
 74
     0
 49
-3.0
 74
     0
  0
LTYPE
  5
A3
330
5
100
AcDbSymbolTableRecord
100
AcDbLinetypeTableRecord
  2
ACAD_ISO12W100
 70
     0
  3
ISO dash double-dot __ . . __ . . __ . . __ . .
 72
    65
 73
     6
 40
21.0
 49
12.0
 74
     0
 49
-3.0
 74
     0
 49
0.0
 74
     0
 49
-3.0
 74
     0
 49
0.0
 74
     0
 49
-3.0
 74
     0
  0
LTYPE
  5
A4
330
5
100
AcDbSymbolTableRecord
100
AcDbLinetypeTableRecord
  2
ACAD_ISO13W100
 70
     0
  3
ISO double-dash double-dot __ __ . . __ __ . . 
 72
    65
 73
     8
 40
36.0
 49
12.0
 74
     0
 49
-3.0
 74
     0
 49
12.0
 74
     0
 49
-3.0
 74
     0
 49
0.0
 74
     0
 49
-3.0
 74
     0
 49
0.0
 74
     0
 49
-3.0
 74
     0
  0
LTYPE
  5
A5
330
5
100
AcDbSymbolTableRecord
100
AcDbLinetypeTableRecord
  2
ACAD_ISO14W100
 70
     0
  3
ISO dash triple-dot __ . . . __ . . . __ . . . 
 72
    65
 73
     8
 40
24.0
 49
12.0
 74
     0
 49
-3.0
 74
     0
 49
0.0
 74
     0
 49
-3.0
 74
     0
 49
0.0
 74
     0
 49
-3.0
 74
     0
 49
0.0
 74
     0
 49
-3.0
 74
     0
  0
LTYPE
  5
A6
330
5
100
AcDbSymbolTableRecord
100
AcDbLinetypeTableRecord
  2
ACAD_ISO15W100
 70
     0
  3
ISO double-dash triple-dot __ __ . . . __ __ . 
 72
    65
 73
    10
 40
39.0
 49
12.0
 74
     0
 49
-3.0
 74
     0
 49
12.0
 74
     0
 49
-3.0
 74
     0
 49
0.0
 74
     0
 49
-3.0
 74
     0
 49
0.0
 74
     0
 49
-3.0
 74
     0
 49
0.0
 74
     0
 49
-3.0
 74
     0
  0
LTYPE
  5
A9
330
5
100
AcDbSymbolTableRecord
100
AcDbLinetypeTableRecord
  2
FENCELINE1
 70
     0
  3
Fenceline circle ----0-----0----0-----0----0---
 72
    65
 73
     4
 40
36.83
 49
6.349999999999999
 74
     0
 49
-2.54
 74
     4
 75
   133
340
A8
 46
2.54
 50
0.0
 44
-2.54
 45
0.0
 49
-2.54
 74
     0
 49
25.4
 74
     0
  0
LTYPE
  5
AA
330
5
100
AcDbSymbolTableRecord
100
AcDbLinetypeTableRecord
  2
FENCELINE2
 70
     0
  3
Fenceline square ----[]-----[]----[]-----[]----
 72
    65
 73
     4
 40
36.83
 49
6.349999999999999
 74
     0
 49
-2.54
 74
     4
 75
   132
340
A8
 46
2.54
 50
0.0
 44
-2.54
 45
0.0
 49
-2.54
 74
     0
 49
25.4
 74
     0
  0
LTYPE
  5
AB
330
5
100
AcDbSymbolTableRecord
100
AcDbLinetypeTableRecord
  2
TRACKS
 70
     0
  3
Tracks -|-|-|-|-|-|-|-|-|-|-|-|-|-|-|-|-|-|-|-|
 72
    65
 73
     2
 40
7.62
 49
3.81
 74
     4
 75
   130
340
A8
 46
6.349999999999999
 50
0.0
 44
0.0
 45
0.0
 49
3.81
 74
     0
  0
LTYPE
  5
AC
330
5
100
AcDbSymbolTableRecord
100
AcDbLinetypeTableRecord
  2
BATTING
 70
     0
  3
Batting SSSSSSSSSSSSSSSSSSSSSSSSSSSSSSSSSSSSSSS
 72
    65
 73
     4
 40
10.16254
 49
0.00254
 74
     0
 49
-2.54
 74
     4
 75
   134
340
A8
 46
2.54
 50
0.0
 44
-2.54
 45
0.0
 49
-5.08
 74
     4
 75
   134
340
A8
 46
2.54
 50
180.0
 44
2.54
 45
0.0
 49
-2.54
 74
     0
  0
LTYPE
  5
AD
330
5
100
AcDbSymbolTableRecord
100
AcDbLinetypeTableRecord
  2
HOT_WATER_SUPPLY
 70
     0
  3
Hot water supply ---- HW ---- HW ---- HW ----
 72
    65
 73
     3
 40
22.86
 49
12.7
 74
     0
 49
-5.08
 74
     2
 75
     0
340
55
 46
2.54
 50
0.0
 44
-2.54
 45
-1.27
  9
HW
 49
-5.08
 74
     0
  0
LTYPE
  5
AE
330
5
100
AcDbSymbolTableRecord
100
AcDbLinetypeTableRecord
  2
GAS_LINE
 70
     0
  3
Gas line ----GAS----GAS----GAS----GAS----GAS---
 72
    65
 73
     3
 40
24.13
 49
12.7
 74
     0
 49
-5.08
 74
     2
 75
     0
340
55
 46
2.54
 50
0.0
 44
-2.54
 45
-1.27
  9
GAS
 49
-6.349999999999999
 74
     0
  0
LTYPE
  5
AF
330
5
100
AcDbSymbolTableRecord
100
AcDbLinetypeTableRecord
  2
ZIGZAG
 70
     0
  3
Zig zag /\/\/\/\/\/\/\/\/\/\/\/\/\/\/\/\/\/\/\/
 72
    65
 73
     4
 40
20.32254
 49
0.00254
 74
     0
 49
-5.08
 74
     4
 75
   131
340
A8
 46
5.08
 50
0.0
 44
-5.08
 45
0.0
 49
-10.16
 74
     4
 75
   131
340
A8
 46
5.08
 50
180.0
 44
5.08
 45
0.0
 49
-5.08
 74
     0
  0
LTYPE
  5
655
330
5
100
AcDbSymbolTableRecord
100
AcDbLinetypeTableRecord
  2
AM_ISO02W050
 70
     0
  3
__ __ __ __ __ __ __ __ __ __ __ __ __ __ __
 72
    65
 73
     2
 40
7.5
 49
6.0
 74
     0
 49
-1.5
 74
     0
  0
LTYPE
  5
656
330
5
100
AcDbSymbolTableRecord
100
AcDbLinetypeTableRecord
  2
AM_ISO08W050
 70
     0
  3
____ . ____ . ____ . ____ . ____ . ____ . ____
 72
    65
 73
     4
 40
18.0
 49
12.0
 74
     0
 49
-1.5
 74
     0
 49
3.0
 74
     0
 49
-1.5
 74
     0
  0
LTYPE
  5
657
330
5
100
AcDbSymbolTableRecord
100
AcDbLinetypeTableRecord
  2
AM_ISO09W050
 70
     0
  3
_____ . . _____ . . _____ . . ____ .. ____
 72
    65
 73
     6
 40
22.5
 49
12.0
 74
     0
 49
-1.5
 74
     0
 49
3.0
 74
     0
 49
-1.5
 74
     0
 49
3.0
 74
     0
 49
-1.5
 74
     0
  0
LTYPE
  5
658
330
5
100
AcDbSymbolTableRecord
100
AcDbLinetypeTableRecord
  2
Amconstr
 70
     0
  3
_______________________
 72
    65
 73
     2
 40
9999.0
 49
9999.0
 74
     0
 49
0.0
 74
     0
  0
LTYPE
  5
659
330
5
100
AcDbSymbolTableRecord
100
AcDbLinetypeTableRecord
  2
AM_ISO08W050x2
 70
     0
  3
__ . __ . __ . __ . __ . __
 72
    65
 73
     4
 40
9.0
 49
6.0
 74
     0
 49
-0.75
 74
     0
 49
1.5
 74
     0
 49
-0.75
 74
     0
  0
LTYPE
  5
65A
330
5
100
AcDbSymbolTableRecord
100
AcDbLinetypeTableRecord
  2
AM_ISO02W050x2
 70
     0
  3
 _ _ _ _ _ _ _ _ _ _ _ _
 72
    65
 73
     2
 40
3.75
 49
3.0
 74
     0
 49
-0.75
 74
     0
  0
LTYPE
  5
65D
330
5
100
AcDbSymbolTableRecord
100
AcDbLinetypeTableRecord
  2
Amzigzag
 70
     0
  3
/\/-/\/-/\/-/\/-/\/-/\/
 72
    65
 73
     2
 40
11.0001
 49
0.0001
 74
     4
 75
   136
340
65C
 46
0.04
 50
0.0
 44
0.0
 45
0.0
 49
-11.0
 74
     0
  0
LTYPE
  5
66C
330
5
100
AcDbSymbolTableRecord
100
AcDbLinetypeTableRecord
  2
ACISOWELD
 70
     0
  3
_ _ _ _ _
 72
    65
 73
     2
 40
2.0
 49
2.0
 74
     0
 49
-1.0
 74
     0
  0
LTYPE
  5
66D
330
5
100
AcDbSymbolTableRecord
100
AcDbLinetypeTableRecord
  2
ACISOTGL
 70
     0
  3
_ _ _ _ _
 72
    65
 73
     2
 40
3.0
 49
2.0
 74
     0
 49
-1.0
 74
     0
  0
LTYPE
  5
66E
330
5
100
AcDbSymbolTableRecord
100
AcDbLinetypeTableRecord
  2
ACISOTGB
 70
     0
  3
__ . . __ . .
 72
    65
 73
     6
 40
9.0
 49
4.0
 74
     0
 49
-1.0
 74
     0
 49
1.0
 74
     0
 49
-1.0
 74
     0
 49
1.0
 74
     0
 49
-1.0
 74
     0
  0
ENDTAB
  0
TABLE
  2
LAYER
  5
2
330
0
100
AcDbSymbolTable
 70
     2
  0
LAYER
  5
54
330
2
100
AcDbSymbolTableRecord
100
AcDbLayerTableRecord
  2
0
 70
     0
 62
     7
  6
Continuous
370
    -3
390
F
  0
LAYER
  5
17F
330
2
100
AcDbSymbolTableRecord
100
AcDbLayerTableRecord
  2
Spigoli visibili(ISO)
 70
     0
 62
   179
  6
Continuous
370
    35
390
F
  0
ENDTAB
  0
TABLE
  2
STYLE
  5
3
330
0
100
AcDbSymbolTable
 70
     6
  0
STYLE
  5
55
330
3
100
AcDbSymbolTableRecord
100
AcDbTextStyleTableRecord
  2
Standard
 70
     0
 40
0.0
 41
1.0
 50
0.0
 71
     0
 42
0.2
  3
ARIAL.TTF
  4

1001
ACAD
1000
Arial
1071
      256
  0
STYLE
  5
5A
330
3
100
AcDbSymbolTableRecord
100
AcDbTextStyleTableRecord
  2
Annotative
 70
     0
 40
0.0
 41
1.0
 50
0.0
 71
     0
 42
0.2
  3
txt
  4

1001
AcadAnnotative
1000
AnnotativeData
1002
{
1070
     1
1070
     1
1002
}
  0
STYLE
  5
A8
330
3
100
AcDbSymbolTableRecord
100
AcDbTextStyleTableRecord
  2

 70
     1
 40
0.0
 41
1.0
 50
0.0
 71
     0
 42
0.2
  3
ltypeshp.shx
  4

  0
STYLE
  5
65C
330
3
100
AcDbSymbolTableRecord
100
AcDbTextStyleTableRecord
  2

 70
     1
 40
0.0
 41
1.0
 50
0.0
 71
     0
 42
0.2
  3
genltshp.shx
  4

  0
STYLE
  5
66A
330
3
100
AcDbSymbolTableRecord
100
AcDbTextStyleTableRecord
  2
ACISOTS
 70
     0
 40
1.0
 41
1.0
 50
0.0
 71
     0
 42
0.2
  3
isocp.shx
  4

  0
STYLE
  5
66B
330
3
100
AcDbSymbolTableRecord
100
AcDbTextStyleTableRecord
  2
ACISOGDT
 70
     0
 40
0.0
 41
1.0
 50
0.0
 71
     0
 42
0.2
  3
amgdt.shx
  4

  0
ENDTAB
  0
TABLE
  2
VIEW
  5
6
330
0
100
AcDbSymbolTable
 70
     0
  0
ENDTAB
  0
TABLE
  2
UCS
  5
7
330
0
100
AcDbSymbolTable
 70
     0
  0
ENDTAB
  0
TABLE
  2
APPID
  5
9
330
0
100
AcDbSymbolTable
 70
    14
  0
APPID
  5
56
330
9
100
AcDbSymbolTableRecord
100
AcDbRegAppTableRecord
  2
ACAD
 70
     0
  0
APPID
  5
5E
330
9
100
AcDbSymbolTableRecord
100
AcDbRegAppTableRecord
  2
AcadAnnotative
 70
     0
  0
APPID
  5
612
330
9
100
AcDbSymbolTableRecord
100
AcDbRegAppTableRecord
  2
MCAD_NO_VIS
 70
     0
  0
APPID
  5
613
330
9
100
AcDbSymbolTableRecord
100
AcDbRegAppTableRecord
  2
ACAD_TEMP_GRAPHIC
 70
     0
  0
APPID
  5
61D
330
9
100
AcDbSymbolTableRecord
100
AcDbRegAppTableRecord
  2
ACATTRIBSERVICES
 70
     0
  0
APPID
  5
635
330
9
100
AcDbSymbolTableRecord
100
AcDbRegAppTableRecord
  2
DESIGNERASSEMBLIES
 70
     0
  0
APPID
  5
652
330
9
100
AcDbSymbolTableRecord
100
AcDbRegAppTableRecord
  2
ACAD_DSTYLE_DIMJAG
 70
     0
  0
APPID
  5
653
330
9
100
AcDbSymbolTableRecord
100
AcDbRegAppTableRecord
  2
ACAD_DSTYLE_DIMBREAK
 70
     0
  0
APPID
  5
675
330
9
100
AcDbSymbolTableRecord
100
AcDbRegAppTableRecord
  2
ACAD_NAV_VCDISPLAY
 70
     0
  0
APPID
  5
6BA
330
9
100
AcDbSymbolTableRecord
100
AcDbRegAppTableRecord
  2
ACAD_MLEADERVER
 70
     0
  0
APPID
  5
6C1
330
9
100
AcDbSymbolTableRecord
100
AcDbRegAppTableRecord
  2
ACAD_DSTYLE_DIMARC_LENGTH_SYMBOL
 70
     0
  0
APPID
  5
6C2
330
9
100
AcDbSymbolTableRecord
100
AcDbRegAppTableRecord
  2
ACAD_DSTYLE_DIM_LINETYPE
 70
     0
  0
APPID
  5
6C3
330
9
100
AcDbSymbolTableRecord
100
AcDbRegAppTableRecord
  2
ACAD_DSTYLE_DIM_EXT1_LINETYPE
 70
     0
  0
APPID
  5
6C4
330
9
100
AcDbSymbolTableRecord
100
AcDbRegAppTableRecord
  2
ACAD_DSTYLE_DIM_EXT2_LINETYPE
 70
     0
  0
ENDTAB
  0
TABLE
  2
DIMSTYLE
  5
A
330
0
100
AcDbSymbolTable
 70
     9
100
AcDbDimStyleTable
 71
     0
  0
DIMSTYLE
105
58
330
A
100
AcDbSymbolTableRecord
100
AcDbDimStyleTableRecord
  2
Standard
 70
     0
340
55
  0
DIMSTYLE
105
59
330
A
100
AcDbSymbolTableRecord
100
AcDbDimStyleTableRecord
  2
Annotative
 70
     0
340
55
1001
AcadAnnotative
1000
AnnotativeData
1002
{
1070
     1
1070
     1
1002
}
  0
DIMSTYLE
105
651
102
{ACAD_REACTORS
330
640
102
}
330
A
100
AcDbSymbolTableRecord
100
AcDbDimStyleTableRecord
  2
AM_ISO
 70
     0
  4
"
 41
3.5
 42
1.0
 43
10.0
 44
1.0
 47
0.1
 48
0.1
 73
     0
 74
     0
 77
     1
 78
     8
 79
     2
140
3.5
141
0.0
143
0.0393701
146
0.71
147
1.5
172
     1
176
   256
177
   256
178
     2
271
     2
272
     3
274
     4
283
     0
284
     8
340
55
371
    -1
372
    -1
1001
ACAD_DSTYLE_DIMJAG
1070
   388
1040
1.5
1001
ACAD_DSTYLE_DIMBREAK
1070
   391
1040
3.75
1001
ACAD_DSTYLE_DIMARC_LENGTH_SYMBOL
1070
   379
1070
     1
1001
ACAD_DSTYLE_DIM_LINETYPE
1070
   380
1005
5B
1001
ACAD_DSTYLE_DIM_EXT1_LINETYPE
1070
   381
1005
5B
1001
ACAD_DSTYLE_DIM_EXT2_LINETYPE
1070
   382
1005
5B
  0
DIMSTYLE
105
65E
330
A
100
AcDbSymbolTableRecord
100
AcDbDimStyleTableRecord
  2
AM_ISO$3
 70
     0
  4
"
 41
3.5
 42
1.0
 43
10.0
 44
1.0
 47
0.1
 48
0.1
 73
     0
 77
     1
 78
     8
 79
     2
140
3.5
141
0.0
143
0.0393701
146
0.71
147
1.5
176
   256
177
   256
178
     2
271
     2
272
     3
274
     4
283
     0
284
     8
288
     1
289
     0
340
55
371
    -1
372
    -1
1001
ACAD_DSTYLE_DIMBREAK
1070
   391
1040
3.75
1001
ACAD_DSTYLE_DIMJAG
1070
   388
1040
1.5
1001
ACAD_DSTYLE_DIMARC_LENGTH_SYMBOL
1070
   379
1070
     1
1001
ACAD_DSTYLE_DIM_LINETYPE
1070
   380
1005
5B
1001
ACAD_DSTYLE_DIM_EXT1_LINETYPE
1070
   381
1005
5B
1001
ACAD_DSTYLE_DIM_EXT2_LINETYPE
1070
   382
1005
5B
  0
DIMSTYLE
105
65F
330
A
100
AcDbSymbolTableRecord
100
AcDbDimStyleTableRecord
  2
AM_ISO$4
 70
     0
  4
"
 41
3.5
 42
1.0
 43
10.0
 44
1.0
 47
0.1
 48
0.1
 73
     0
 77
     1
 78
     8
 79
     2
140
3.5
141
0.0
143
0.0393701
146
0.71
147
1.5
176
   256
177
   256
178
     2
271
     2
272
     3
274
     4
283
     0
284
     8
288
     1
289
     0
340
55
371
    -1
372
    -1
1001
ACAD_DSTYLE_DIMBREAK
1070
   391
1040
3.75
1001
ACAD_DSTYLE_DIMJAG
1070
   388
1040
1.5
1001
ACAD_DSTYLE_DIMARC_LENGTH_SYMBOL
1070
   379
1070
     1
1001
ACAD_DSTYLE_DIM_LINETYPE
1070
   380
1005
5B
1001
ACAD_DSTYLE_DIM_EXT1_LINETYPE
1070
   381
1005
5B
1001
ACAD_DSTYLE_DIM_EXT2_LINETYPE
1070
   382
1005
5B
  0
DIMSTYLE
105
660
330
A
100
AcDbSymbolTableRecord
100
AcDbDimStyleTableRecord
  2
AM_ISO$6
 70
     0
  4
"
 41
3.5
 42
1.0
 43
10.0
 44
1.0
 47
0.1
 48
0.1
 73
     0
 74
     0
 78
     8
 79
     2
140
3.5
141
0.0
143
0.0393701
146
0.71
147
1.5
172
     1
176
   256
177
   256
178
     2
271
     2
272
     3
274
     4
283
     0
284
     8
340
55
371
    -1
372
    -1
1001
ACAD_DSTYLE_DIMBREAK
1070
   391
1040
3.75
1001
ACAD_DSTYLE_DIMJAG
1070
   388
1040
1.5
1001
ACAD_DSTYLE_DIMARC_LENGTH_SYMBOL
1070
   379
1070
     1
1001
ACAD_DSTYLE_DIM_LINETYPE
1070
   380
1005
5B
1001
ACAD_DSTYLE_DIM_EXT1_LINETYPE
1070
   381
1005
5B
1001
ACAD_DSTYLE_DIM_EXT2_LINETYPE
1070
   382
1005
5B
  0
DIMSTYLE
105
661
330
A
100
AcDbSymbolTableRecord
100
AcDbDimStyleTableRecord
  2
AM_ISO$7
 70
     0
  4
"
 41
3.5
 42
1.0
 43
10.0
 44
1.0
 47
0.1
 48
0.1
 73
     0
 74
     0
 77
     1
 78
     8
 79
     2
140
3.5
141
0.0
143
0.0393701
146
0.71
147
1.5
172
     1
176
   256
177
   256
178
     2
271
     2
272
     3
274
     4
283
     0
284
     8
340
55
371
    -1
372
    -1
1001
ACAD_DSTYLE_DIMBREAK
1070
   391
1040
3.75
1001
ACAD_DSTYLE_DIMJAG
1070
   388
1040
1.5
1001
ACAD_DSTYLE_DIMARC_LENGTH_SYMBOL
1070
   379
1070
     1
1001
ACAD_DSTYLE_DIM_LINETYPE
1070
   380
1005
5B
1001
ACAD_DSTYLE_DIM_EXT1_LINETYPE
1070
   381
1005
5B
1001
ACAD_DSTYLE_DIM_EXT2_LINETYPE
1070
   382
1005
5B
  0
DIMSTYLE
105
662
330
A
100
AcDbSymbolTableRecord
100
AcDbDimStyleTableRecord
  2
AM_ISO$SF
 70
     0
  4
"
 41
3.5
 42
1.0
 43
10.0
 44
1.0
 47
0.1
 48
0.1
 73
     0
 74
     0
 75
     1
 76
     1
 77
     1
 78
     8
 79
     2
140
3.5
141
0.0
143
0.0393701
146
0.71
147
1.5
172
     1
176
   256
177
   256
178
     2
271
     2
272
     3
274
     4
283
     0
284
     8
340
55
371
    -1
372
    -1
1001
ACAD_DSTYLE_DIMBREAK
1070
   391
1040
3.75
1001
ACAD_DSTYLE_DIMJAG
1070
   388
1040
1.5
1001
ACAD_DSTYLE_DIMARC_LENGTH_SYMBOL
1070
   379
1070
     1
1001
ACAD_DSTYLE_DIM_LINETYPE
1070
   380
1005
5B
1001
ACAD_DSTYLE_DIM_EXT1_LINETYPE
1070
   381
1005
5B
1001
ACAD_DSTYLE_DIM_EXT2_LINETYPE
1070
   382
1005
5B
  0
DIMSTYLE
105
667
330
A
100
AcDbSymbolTableRecord
100
AcDbDimStyleTableRecord
  2
AM_ISO$SH
 70
     0
  4
"
 41
3.5
 42
1.0
 43
10.0
 44
1.0
 47
0.1
 48
0.1
 73
     0
 74
     0
 75
     1
 76
     1
 77
     1
 78
     8
 79
     2
140
3.5
141
0.0
143
0.0393701
144
2.0
146
0.71
147
1.5
172
     1
173
     1
176
   256
177
   256
178
     2
271
     2
272
     3
274
     4
283
     0
284
     8
340
55
343
663
371
    -1
372
    -1
1001
ACAD_DSTYLE_DIMBREAK
1070
   391
1040
3.75
1001
ACAD_DSTYLE_DIMJAG
1070
   388
1040
1.5
1001
ACAD_DSTYLE_DIMARC_LENGTH_SYMBOL
1070
   379
1070
     1
1001
ACAD_DSTYLE_DIM_LINETYPE
1070
   380
1005
5B
1001
ACAD_DSTYLE_DIM_EXT1_LINETYPE
1070
   381
1005
5B
1001
ACAD_DSTYLE_DIM_EXT2_LINETYPE
1070
   382
1005
5B
  0
ENDTAB
  0
TABLE
  2
BLOCK_RECORD
  5
1
330
0
100
AcDbSymbolTable
 70
     3
  0
BLOCK_RECORD
  5
6C
330
1
100
AcDbSymbolTableRecord
100
AcDbBlockTableRecord
  2
*Model_Space
340
6F
  0
BLOCK_RECORD
  5
68
330
1
100
AcDbSymbolTableRecord
100
AcDbBlockTableRecord
  2
*Paper_Space
340
6B
  0
BLOCK_RECORD
  5
70
330
1
100
AcDbSymbolTableRecord
100
AcDbBlockTableRecord
  2
*Paper_Space0
340
73
  0
BLOCK_RECORD
  5
663
330
1
100
AcDbSymbolTableRecord
100
AcDbBlockTableRecord
  2
GENAXEH
340
0
  0
ENDTAB
  0
ENDSEC
  0
SECTION
  2
BLOCKS
  0
BLOCK
  5
6D
330
6C
100
AcDbEntity
  8
0
100
AcDbBlockBegin
  2
*Model_Space
 70
     0
 10
0.0
 20
0.0
 30
0.0
  3
*Model_Space
  1

  0
ENDBLK
  5
6E
330
6C
100
AcDbEntity
  8
0
100
AcDbBlockEnd
  0
BLOCK
  5
69
330
68
100
AcDbEntity
 67
     1
  8
0
100
AcDbBlockBegin
  2
*Paper_Space
 70
     0
 10
0.0
 20
0.0
 30
0.0
  3
*Paper_Space
  1

  0
ENDBLK
  5
6A
330
68
100
AcDbEntity
 67
     1
  8
0
100
AcDbBlockEnd
  0
BLOCK
  5
71
330
70
100
AcDbEntity
 67
     1
  8
0
100
AcDbBlockBegin
  2
*Paper_Space0
 70
     0
 10
0.0
 20
0.0
 30
0.0
  3
*Paper_Space0
  1

  0
ENDBLK
  5
72
330
70
100
AcDbEntity
 67
     1
  8
0
100
AcDbBlockEnd
  0
BLOCK
  5
665
330
663
100
AcDbEntity
  8
0
100
AcDbBlockBegin
  2
GENAXEH
 70
     0
 10
0.0
 20
0.0
 30
0.0
  3
GENAXEH
  1

  0
LINE
  5
664
330
663
100
AcDbEntity
  8
0
100
AcDbLine
 10
-1.0
 20
0.0
 30
0.0
 11
1.0
 21
0.0
 31
0.0
  0
ENDBLK
  5
666
330
663
100
AcDbEntity
  8
0
100
AcDbBlockEnd
  0
ENDSEC
  0
SECTION
  2
ENTITIES
  0
LINE
  5
182
330
6C
100
AcDbEntity
  8
Spigoli visibili(ISO)
100
AcDbLine
 10
698.8767107613671
 20
489.1778308713993
 30
0.0
 11
698.8767107613671
 21
352.1778308713994
 31
0.0
  0
LINE
  5
184
330
6C
100
AcDbEntity
  8
Spigoli visibili(ISO)
100
AcDbLine
 10
694.8767107613671
 20
352.1778308713994
 30
0.0
 11
694.8767107613671
 21
489.1778308713993
 31
0.0
  0
LINE
  5
185
330
6C
100
AcDbEntity
  8
Spigoli visibili(ISO)
100
AcDbLine
 10
476.8767107613671
 20
497.1778308713993
 30
0.0
 11
690.876710761367
 21
497.1778308713993
 31
0.0
  0
LINE
  5
186
330
6C
100
AcDbEntity
  8
Spigoli visibili(ISO)
100
AcDbLine
 10
468.876710761367
 20
422.1778308713993
 30
0.0
 11
468.876710761367
 21
489.1778308713993
 31
0.0
  0
LINE
  5
187
330
6C
100
AcDbEntity
  8
Spigoli visibili(ISO)
100
AcDbLine
 10
472.876710761367
 20
489.1778308713993
 30
0.0
 11
472.876710761367
 21
422.1778308713993
 31
0.0
  0
LINE
  5
188
330
6C
100
AcDbEntity
  8
Spigoli visibili(ISO)
100
AcDbLine
 10
690.876710761367
 20
493.1778308713993
 30
0.0
 11
476.8767107613671
 21
493.1778308713993
 31
0.0
  0
LINE
  5
189
330
6C
100
AcDbEntity
  8
Spigoli visibili(ISO)
100
AcDbLine
 10
698.876710761367
 20
352.1778308713993
 30
0.0
 11
698.876710761367
 21
347.1778308713993
 31
0.0
  0
LINE
  5
18A
330
6C
100
AcDbEntity
  8
Spigoli visibili(ISO)
100
AcDbLine
 10
694.8767107613671
 20
347.1778308713993
 30
0.0
 11
694.8767107613671
 21
352.1778308713994
 31
0.0
  0
LINE
  5
18B
330
6C
100
AcDbEntity
  8
Spigoli visibili(ISO)
100
AcDbLine
 10
468.876710761367
 20
417.1778308713993
 30
0.0
 11
468.876710761367
 21
422.1778308713993
 31
0.0
  0
LINE
  5
18C
330
6C
100
AcDbEntity
  8
Spigoli visibili(ISO)
100
AcDbLine
 10
468.876710761367
 20
417.1778308713993
 30
0.0
 11
472.876710761367
 21
417.1778308713993
 31
0.0
  0
LINE
  5
18D
330
6C
100
AcDbEntity
  8
Spigoli visibili(ISO)
100
AcDbLine
 10
472.876710761367
 20
422.1778308713993
 30
0.0
 11
472.876710761367
 21
417.1778308713993
 31
0.0
  0
LINE
  5
18E
330
6C
100
AcDbEntity
  8
Spigoli visibili(ISO)
100
AcDbLine
 10
694.8767107613671
 20
347.1778308713993
 30
0.0
 11
698.8767107613671
 21
347.1778308713993
 31
0.0
  0
ARC
  5
18F
330
6C
100
AcDbEntity
  8
Spigoli visibili(ISO)
100
AcDbCircle
 10
690.876710761367
 20
489.1778308713993
 30
0.0
 40
7.999999999999989
100
AcDbArc
 50
0.0
 51
90.0
  0
ARC
  5
190
330
6C
100
AcDbEntity
  8
Spigoli visibili(ISO)
100
AcDbCircle
 10
690.876710761367
 20
489.1778308713993
 30
0.0
 40
4.000000000000021
100
AcDbArc
 50
0.0
 51
90.0
  0
ARC
  5
191
330
6C
100
AcDbEntity
  8
Spigoli visibili(ISO)
100
AcDbCircle
 10
476.876710761367
 20
489.1778308713993
 30
0.0
 40
7.999999999999991
100
AcDbArc
 50
90.0
 51
180.0
  0
ARC
  5
192
330
6C
100
AcDbEntity
  8
Spigoli visibili(ISO)
100
AcDbCircle
 10
476.8767107613671
 20
489.1778308713993
 30
0.0
 40
4.00000000000002
100
AcDbArc
 50
90.0
 51
180.0
  0
LINE
  5
193
330
6C
100
AcDbEntity
  8
Spigoli visibili(ISO)
100
AcDbLine
 10
691.8767107613671
 20
427.6778308713993
 30
0.0
 11
687.3767107613671
 21
427.6778308713993
 31
0.0
  0
LINE
  5
194
330
6C
100
AcDbEntity
  8
Spigoli visibili(ISO)
100
AcDbLine
 10
655.876710761367
 20
427.6778308713993
 30
0.0
 11
687.3767107613671
 21
427.6778308713993
 31
0.0
  0
LINE
  5
195
330
6C
100
AcDbEntity
  8
Spigoli visibili(ISO)
100
AcDbLine
 10
655.876710761367
 20
480.6778308713993
 30
0.0
 11
655.876710761367
 21
427.6778308713993
 31
0.0
  0
LINE
  5
196
330
6C
100
AcDbEntity
  8
Spigoli visibili(ISO)
100
AcDbLine
 10
691.8767107613668
 20
480.6778308713993
 30
0.0
 11
691.8767107613668
 21
427.6778308713993
 31
0.0
  0
LINE
  5
197
330
6C
100
AcDbEntity
  8
Spigoli visibili(ISO)
100
AcDbLine
 10
678.0996326758875
 20
451.8075329675479
 30
0.0
 11
678.0996326758875
 21
453.8629693758326
 31
0.0
  0
LINE
  5
198
330
6C
100
AcDbEntity
  8
Spigoli visibili(ISO)
100
AcDbLine
 10
678.0996326758875
 20
453.8629693758326
 30
0.0
 11
668.6537888468465
 21
453.8629693758326
 31
0.0
  0
LINE
  5
199
330
6C
100
AcDbEntity
  8
Spigoli visibili(ISO)
100
AcDbLine
 10
668.6537888468465
 20
453.8629693758326
 30
0.0
 11
668.6537888468465
 21
451.8075329675479
 31
0.0
  0
ARC
  5
19A
330
6C
100
AcDbEntity
  8
Spigoli visibili(ISO)
100
AcDbCircle
 10
673.376710761367
 20
456.7518947713993
 30
0.0
 40
6.297229219360829
100
AcDbArc
 50
236.6329870307672
 51
303.3670129692314
  0
LINE
  5
19B
330
6C
100
AcDbEntity
  8
Spigoli visibili(ISO)
100
AcDbLine
 10
669.9132346907186
 20
451.49267150658
 30
0.0
 11
668.3389273858783
 21
451.4926715065798
 31
0.0
  0
LINE
  5
19C
330
6C
100
AcDbEntity
  8
Spigoli visibili(ISO)
100
AcDbLine
 10
668.3389273858783
 20
451.4926715065798
 30
0.0
 11
668.3389273858783
 21
454.1778308368003
 31
0.0
  0
LINE
  5
19D
330
6C
100
AcDbEntity
  8
Spigoli visibili(ISO)
100
AcDbLine
 10
676.7445008898152
 20
451.807532967548
 30
0.0
 11
678.0996326758875
 21
451.8075329675479
 31
0.0
  0
ARC
  5
19E
330
6C
100
AcDbEntity
  8
Spigoli visibili(ISO)
100
AcDbCircle
 10
673.376710761367
 20
456.7518947713993
 30
0.0
 40
5.982367758392782
100
AcDbArc
 50
235.7397558735602
 51
304.2602441264413
  0
LINE
  5
19F
330
6C
100
AcDbEntity
  8
Spigoli visibili(ISO)
100
AcDbLine
 10
668.6537888468465
 20
451.8075329675479
 30
0.0
 11
670.0089206329188
 21
451.8075329675479
 31
0.0
  0
LINE
  5
1A0
330
6C
100
AcDbEntity
  8
Spigoli visibili(ISO)
100
AcDbLine
 10
668.3389273858783
 20
454.1778308368003
 30
0.0
 11
678.4144941368556
 21
454.1778308368005
 31
0.0
  0
LINE
  5
1A1
330
6C
100
AcDbEntity
  8
Spigoli visibili(ISO)
100
AcDbLine
 10
678.4144941368556
 20
454.1778308368005
 30
0.0
 11
678.4144941368556
 21
451.4926715065798
 31
0.0
  0
LINE
  5
1A2
330
6C
100
AcDbEntity
  8
Spigoli visibili(ISO)
100
AcDbLine
 10
678.4144941368556
 20
451.4926715065798
 30
0.0
 11
676.8401868320154
 21
451.49267150658
 31
0.0
  0
LINE
  5
1A3
330
6C
100
AcDbEntity
  8
Spigoli visibili(ISO)
100
AcDbLine
 10
678.0996326758875
 20
448.4926507153911
 30
0.0
 11
678.0996326758875
 21
450.5480871236758
 31
0.0
  0
LINE
  5
1A4
330
6C
100
AcDbEntity
  8
Spigoli visibili(ISO)
100
AcDbLine
 10
678.0996326758875
 20
450.5480871236758
 30
0.0
 11
677.1125687511731
 21
450.5480871236758
 31
0.0
  0
ARC
  5
1A5
330
6C
100
AcDbEntity
  8
Spigoli visibili(ISO)
100
AcDbCircle
 10
673.376710761367
 20
456.7518947713993
 30
0.0
 40
7.241813602264951
100
AcDbArc
 50
238.944157234803
 51
301.055842765198
  0
LINE
  5
1A6
330
6C
100
AcDbEntity
  8
Spigoli visibili(ISO)
100
AcDbLine
 10
668.3389273858783
 20
448.1777892544231
 30
0.0
 11
668.3389273858783
 21
450.8629485846437
 31
0.0
  0
LINE
  5
1A7
330
6C
100
AcDbEntity
  8
Spigoli visibili(ISO)
100
AcDbLine
 10
668.3389273858783
 20
450.8629485846437
 30
0.0
 11
669.7293858817714
 21
450.8629485846439
 31
0.0
  0
ARC
  5
1A8
330
6C
100
AcDbEntity
  8
Spigoli visibili(ISO)
100
AcDbCircle
 10
673.376710761367
 20
456.7518947713993
 30
0.0
 40
6.926952141296917
100
AcDbArc
 50
238.2279537716524
 51
301.7720462283476
  0
LINE
  5
1A9
330
6C
100
AcDbEntity
  8
Spigoli visibili(ISO)
100
AcDbLine
 10
668.6537888468465
 20
448.4926507153911
 30
0.0
 11
678.0996326758875
 21
448.4926507153911
 31
0.0
  0
LINE
  5
1AA
330
6C
100
AcDbEntity
  8
Spigoli visibili(ISO)
100
AcDbLine
 10
668.6537888468465
 20
450.5480871236758
 30
0.0
 11
668.6537888468465
 21
448.4926507153911
 31
0.0
  0
LINE
  5
1AB
330
6C
100
AcDbEntity
  8
Spigoli visibili(ISO)
100
AcDbLine
 10
669.6408527715609
 20
450.5480871236758
 30
0.0
 11
668.6537888468465
 21
450.5480871236758
 31
0.0
  0
LINE
  5
1AC
330
6C
100
AcDbEntity
  8
Spigoli visibili(ISO)
100
AcDbLine
 10
677.0240356409625
 20
450.8629485846439
 30
0.0
 11
678.4144941368556
 21
450.8629485846438
 31
0.0
  0
LINE
  5
1AD
330
6C
100
AcDbEntity
  8
Spigoli visibili(ISO)
100
AcDbLine
 10
678.4144941368556
 20
450.8629485846438
 30
0.0
 11
678.4144941368556
 21
448.1777892544231
 31
0.0
  0
LINE
  5
1AE
330
6C
100
AcDbEntity
  8
Spigoli visibili(ISO)
100
AcDbLine
 10
678.4144941368556
 20
448.1777892544231
 30
0.0
 11
668.3389273858783
 21
448.1777892544231
 31
0.0
  0
ARC
  5
1AF
330
6C
100
AcDbEntity
  8
Spigoli visibili(ISO)
100
AcDbCircle
 10
687.3767107613671
 20
480.6778308713993
 30
0.0
 40
4.5
100
AcDbArc
 50
0.0
 51
90.0
  0
LINE
  5
1B0
330
6C
100
AcDbEntity
  8
Spigoli visibili(ISO)
100
AcDbLine
 10
655.876710761367
 20
480.6778308713993
 30
0.0
 11
655.876710761367
 21
485.1778308713993
 31
0.0
  0
LINE
  5
1B1
330
6C
100
AcDbEntity
  8
Spigoli visibili(ISO)
100
AcDbLine
 10
687.3767107613669
 20
485.1778308713993
 30
0.0
 11
655.876710761367
 21
485.1778308713993
 31
0.0
  0
LINE
  5
1B2
330
6C
100
AcDbEntity
  8
Spigoli visibili(ISO)
100
AcDbLine
 10
480.3767107613671
 20
427.6778308713994
 30
0.0
 11
511.876710761367
 21
427.6778308713994
 31
0.0
  0
LINE
  5
1B3
330
6C
100
AcDbEntity
  8
Spigoli visibili(ISO)
100
AcDbLine
 10
480.3767107613671
 20
427.6778308713994
 30
0.0
 11
475.876710761367
 21
427.6778308713994
 31
0.0
  0
LINE
  5
1B4
330
6C
100
AcDbEntity
  8
Spigoli visibili(ISO)
100
AcDbLine
 10
511.876710761367
 20
427.6778308713994
 30
0.0
 11
511.876710761367
 21
480.6778308713993
 31
0.0
  0
LINE
  5
1B5
330
6C
100
AcDbEntity
  8
Spigoli visibili(ISO)
100
AcDbLine
 10
475.876710761367
 20
480.6778308713993
 30
0.0
 11
475.876710761367
 21
427.6778308713994
 31
0.0
  0
LINE
  5
1B6
330
6C
100
AcDbEntity
  8
Spigoli visibili(ISO)
100
AcDbLine
 10
489.6537888468464
 20
453.8629693758326
 30
0.0
 11
489.6537888468464
 21
451.807532967548
 31
0.0
  0
LINE
  5
1B7
330
6C
100
AcDbEntity
  8
Spigoli visibili(ISO)
100
AcDbLine
 10
499.0996326758875
 20
453.8629693758326
 30
0.0
 11
489.6537888468464
 21
453.8629693758326
 31
0.0
  0
LINE
  5
1B8
330
6C
100
AcDbEntity
  8
Spigoli visibili(ISO)
100
AcDbLine
 10
499.0996326758875
 20
451.807532967548
 30
0.0
 11
499.0996326758875
 21
453.8629693758326
 31
0.0
  0
ARC
  5
1B9
330
6C
100
AcDbEntity
  8
Spigoli visibili(ISO)
100
AcDbCircle
 10
494.3767107613671
 20
456.7518947713994
 30
0.0
 40
6.29722921936083
100
AcDbArc
 50
236.6329870307686
 51
303.3670129692314
  0
LINE
  5
1BA
330
6C
100
AcDbEntity
  8
Spigoli visibili(ISO)
100
AcDbLine
 10
499.4144941368556
 20
451.49267150658
 30
0.0
 11
497.8401868320155
 21
451.49267150658
 31
0.0
  0
LINE
  5
1BB
330
6C
100
AcDbEntity
  8
Spigoli visibili(ISO)
100
AcDbLine
 10
499.4144941368556
 20
454.1778308368004
 30
0.0
 11
499.4144941368556
 21
451.49267150658
 31
0.0
  0
LINE
  5
1BC
330
6C
100
AcDbEntity
  8
Spigoli visibili(ISO)
100
AcDbLine
 10
489.6537888468464
 20
451.807532967548
 30
0.0
 11
491.0089206329187
 21
451.8075329675481
 31
0.0
  0
ARC
  5
1BD
330
6C
100
AcDbEntity
  8
Spigoli visibili(ISO)
100
AcDbCircle
 10
494.3767107613671
 20
456.7518947713994
 30
0.0
 40
5.982367758392785
100
AcDbArc
 50
235.7397558735587
 51
304.2602441264398
  0
LINE
  5
1BE
330
6C
100
AcDbEntity
  8
Spigoli visibili(ISO)
100
AcDbLine
 10
497.7445008898152
 20
451.807532967548
 30
0.0
 11
499.0996326758875
 21
451.807532967548
 31
0.0
  0
LINE
  5
1BF
330
6C
100
AcDbEntity
  8
Spigoli visibili(ISO)
100
AcDbLine
 10
489.3389273858784
 20
454.1778308368006
 30
0.0
 11
499.4144941368556
 21
454.1778308368004
 31
0.0
  0
LINE
  5
1C0
330
6C
100
AcDbEntity
  8
Spigoli visibili(ISO)
100
AcDbLine
 10
489.3389273858784
 20
451.49267150658
 30
0.0
 11
489.3389273858784
 21
454.1778308368006
 31
0.0
  0
LINE
  5
1C1
330
6C
100
AcDbEntity
  8
Spigoli visibili(ISO)
100
AcDbLine
 10
490.9132346907186
 20
451.49267150658
 30
0.0
 11
489.3389273858784
 21
451.49267150658
 31
0.0
  0
LINE
  5
1C2
330
6C
100
AcDbEntity
  8
Spigoli visibili(ISO)
100
AcDbLine
 10
489.6537888468464
 20
450.5480871236759
 30
0.0
 11
489.6537888468464
 21
448.4926507153912
 31
0.0
  0
LINE
  5
1C3
330
6C
100
AcDbEntity
  8
Spigoli visibili(ISO)
100
AcDbLine
 10
490.6408527715609
 20
450.5480871236759
 30
0.0
 11
489.6537888468464
 21
450.5480871236759
 31
0.0
  0
ARC
  5
1C4
330
6C
100
AcDbEntity
  8
Spigoli visibili(ISO)
100
AcDbCircle
 10
494.3767107613671
 20
456.7518947713994
 30
0.0
 40
7.241813602264953
100
AcDbArc
 50
238.944157234802
 51
301.0558427651975
  0
LINE
  5
1C5
330
6C
100
AcDbEntity
  8
Spigoli visibili(ISO)
100
AcDbLine
 10
499.4144941368556
 20
450.8629485846438
 30
0.0
 11
499.4144941368556
 21
448.1777892544232
 31
0.0
  0
LINE
  5
1C6
330
6C
100
AcDbEntity
  8
Spigoli visibili(ISO)
100
AcDbLine
 10
498.0240356409626
 20
450.8629485846439
 30
0.0
 11
499.4144941368556
 21
450.8629485846438
 31
0.0
  0
ARC
  5
1C7
330
6C
100
AcDbEntity
  8
Spigoli visibili(ISO)
100
AcDbCircle
 10
494.3767107613671
 20
456.7518947713994
 30
0.0
 40
6.92695214129692
100
AcDbArc
 50
238.2279537716524
 51
301.7720462283476
  0
LINE
  5
1C8
330
6C
100
AcDbEntity
  8
Spigoli visibili(ISO)
100
AcDbLine
 10
489.6537888468464
 20
448.4926507153912
 30
0.0
 11
499.0996326758875
 21
448.4926507153912
 31
0.0
  0
LINE
  5
1C9
330
6C
100
AcDbEntity
  8
Spigoli visibili(ISO)
100
AcDbLine
 10
499.0996326758875
 20
448.4926507153912
 30
0.0
 11
499.0996326758875
 21
450.5480871236758
 31
0.0
  0
LINE
  5
1CA
330
6C
100
AcDbEntity
  8
Spigoli visibili(ISO)
100
AcDbLine
 10
499.0996326758875
 20
450.5480871236758
 30
0.0
 11
498.112568751173
 21
450.5480871236759
 31
0.0
  0
LINE
  5
1CB
330
6C
100
AcDbEntity
  8
Spigoli visibili(ISO)
100
AcDbLine
 10
489.3389273858784
 20
450.8629485846438
 30
0.0
 11
490.7293858817715
 21
450.8629485846439
 31
0.0
  0
LINE
  5
1CC
330
6C
100
AcDbEntity
  8
Spigoli visibili(ISO)
100
AcDbLine
 10
489.3389273858784
 20
448.1777892544232
 30
0.0
 11
489.3389273858784
 21
450.8629485846438
 31
0.0
  0
LINE
  5
1CD
330
6C
100
AcDbEntity
  8
Spigoli visibili(ISO)
100
AcDbLine
 10
499.4144941368556
 20
448.1777892544232
 30
0.0
 11
489.3389273858784
 21
448.1777892544232
 31
0.0
  0
LINE
  5
1CE
330
6C
100
AcDbEntity
  8
Spigoli visibili(ISO)
100
AcDbLine
 10
511.876710761367
 20
485.1778308713994
 30
0.0
 11
511.876710761367
 21
480.6778308713993
 31
0.0
  0
LINE
  5
1CF
330
6C
100
AcDbEntity
  8
Spigoli visibili(ISO)
100
AcDbLine
 10
511.876710761367
 20
485.1778308713994
 30
0.0
 11
480.3767107613671
 21
485.1778308713994
 31
0.0
  0
ARC
  5
1D0
330
6C
100
AcDbEntity
  8
Spigoli visibili(ISO)
100
AcDbCircle
 10
480.3767107613671
 20
480.6778308713993
 30
0.0
 40
4.500000000000008
100
AcDbArc
 50
90.0
 51
180.0
  0
LINE
  5
1D1
330
6C
100
AcDbEntity
  8
Spigoli visibili(ISO)
100
AcDbLine
 10
654.0167107613671
 20
492.1039593707065
 30
0.0
 11
654.0167107613671
 21
486.251702372092
 31
0.0
  0
POLYLINE
  5
1D2
330
6C
100
AcDbEntity
  8
Spigoli visibili(ISO)
100
AcDb2dPolyline
 66
     1
 10
0.0
 20
0.0
 30
0.0
 70
   128
  0
VERTEX
  5
1D3
330
1D2
100
AcDbEntity
  8
Spigoli visibili(ISO)
100
AcDbVertex
100
AcDb2dVertex
 10
654.0167022173677
 20
492.1039564339918
 30
0.0
  0
VERTEX
  5
1D4
330
1D2
100
AcDbEntity
  8
Spigoli visibili(ISO)
100
AcDbVertex
100
AcDb2dVertex
 10
654.3442283095787
 20
492.2861824077681
 30
0.0
  0
VERTEX
  5
1D6
330
1D2
100
AcDbEntity
  8
Spigoli visibili(ISO)
100
AcDbVertex
100
AcDb2dVertex
 10
654.6608803407913
 20
492.448730344992
 30
0.0
  0
VERTEX
  5
1D7
330
1D2
100
AcDbEntity
  8
Spigoli visibili(ISO)
100
AcDbVertex
100
AcDb2dVertex
 10
654.9680317494749
 20
492.5927342581371
 30
0.0
  0
VERTEX
  5
1D8
330
1D2
100
AcDbEntity
  8
Spigoli visibili(ISO)
100
AcDbVertex
100
AcDb2dVertex
 10
655.2668938109542
 20
492.7191857895851
 30
0.0
  0
VERTEX
  5
1D9
330
1D2
100
AcDbEntity
  8
Spigoli visibili(ISO)
100
AcDbVertex
100
AcDb2dVertex
 10
655.5585923892506
 20
492.8289387800258
 30
0.0
  0
VERTEX
  5
1DA
330
1D2
100
AcDbEntity
  8
Spigoli visibili(ISO)
100
AcDbVertex
100
AcDb2dVertex
 10
655.8442060037378
 20
492.9227067943258
 30
0.0
  0
VERTEX
  5
1DB
330
1D2
100
AcDbEntity
  8
Spigoli visibili(ISO)
100
AcDbVertex
100
AcDb2dVertex
 10
656.1247105847574
 20
493.0010953827166
 30
0.0
  0
VERTEX
  5
1DC
330
1D2
100
AcDbEntity
  8
Spigoli visibili(ISO)
100
AcDbVertex
100
AcDb2dVertex
 10
656.4010163032088
 20
493.0645805733361
 30
0.0
  0
VERTEX
  5
1DD
330
1D2
100
AcDbEntity
  8
Spigoli visibili(ISO)
100
AcDbVertex
100
AcDb2dVertex
 10
656.6740283817283
 20
493.113562261013
 30
0.0
  0
VERTEX
  5
1DE
330
1D2
100
AcDbEntity
  8
Spigoli visibili(ISO)
100
AcDbVertex
100
AcDb2dVertex
 10
656.9446071724354
 20
493.1483381314072
 30
0.0
  0
VERTEX
  5
1DF
330
1D2
100
AcDbEntity
  8
Spigoli visibili(ISO)
100
AcDbVertex
100
AcDb2dVertex
 10
657.2135503606715
 20
493.1691239314029
 30
0.0
  0
VERTEX
  5
1E0
330
1D2
100
AcDbEntity
  8
Spigoli visibili(ISO)
100
AcDbVertex
100
AcDb2dVertex
 10
657.481706546431
 20
493.1760365300507
 30
0.0
  0
VERTEX
  5
1E1
330
1D2
100
AcDbEntity
  8
Spigoli visibili(ISO)
100
AcDbVertex
100
AcDb2dVertex
 10
657.749862281463
 20
493.169120374289
 30
0.0
  0
VERTEX
  5
1E2
330
1D2
100
AcDbEntity
  8
Spigoli visibili(ISO)
100
AcDbVertex
100
AcDb2dVertex
 10
658.0188175840482
 20
493.1483330240176
 30
0.0
  0
VERTEX
  5
1E3
330
1D2
100
AcDbEntity
  8
Spigoli visibili(ISO)
100
AcDbVertex
100
AcDb2dVertex
 10
658.2893871760636
 20
493.1135641854248
 30
0.0
  0
VERTEX
  5
1E4
330
1D2
100
AcDbEntity
  8
Spigoli visibili(ISO)
100
AcDbVertex
100
AcDb2dVertex
 10
658.5624158051134
 20
493.0645773739397
 30
0.0
  0
VERTEX
  5
1E5
330
1D2
100
AcDbEntity
  8
Spigoli visibili(ISO)
100
AcDbVertex
100
AcDb2dVertex
 10
658.8387260928107
 20
493.001089758739
 30
0.0
  0
VERTEX
  5
1E6
330
1D2
100
AcDbEntity
  8
Spigoli visibili(ISO)
100
AcDbVertex
100
AcDb2dVertex
 10
659.1192099902144
 20
492.9227088774358
 30
0.0
  0
VERTEX
  5
1E7
330
1D2
100
AcDbEntity
  8
Spigoli visibili(ISO)
100
AcDbVertex
100
AcDb2dVertex
 10
659.4048293963651
 20
492.8289421527433
 30
0.0
  0
VERTEX
  5
1E8
330
1D2
100
AcDbEntity
  8
Spigoli visibili(ISO)
100
AcDbVertex
100
AcDb2dVertex
 10
659.6965394064406
 20
492.719192324075
 30
0.0
  0
VERTEX
  5
1E9
330
1D2
100
AcDbEntity
  8
Spigoli visibili(ISO)
100
AcDbVertex
100
AcDb2dVertex
 10
659.9954012746552
 20
492.5927309918209
 30
0.0
  0
VERTEX
  5
1EA
330
1D2
100
AcDbEntity
  8
Spigoli visibili(ISO)
100
AcDbVertex
100
AcDb2dVertex
 10
660.3025462032036
 20
492.4487296414722
 30
0.0
  0
VERTEX
  5
1EB
330
1D2
100
AcDbEntity
  8
Spigoli visibili(ISO)
100
AcDbVertex
100
AcDb2dVertex
 10
660.6191900458571
 20
492.2861917899083
 30
0.0
  0
VERTEX
  5
1EC
330
1D2
100
AcDbEntity
  8
Spigoli visibili(ISO)
100
AcDbVertex
100
AcDb2dVertex
 10
660.9467100598076
 20
492.1039575537979
 30
0.0
  0
SEQEND
  5
1D5
330
1D2
100
AcDbEntity
  8
Spigoli visibili(ISO)
  0
POLYLINE
  5
1ED
330
6C
100
AcDbEntity
  8
Spigoli visibili(ISO)
100
AcDb2dPolyline
 66
     1
 10
0.0
 20
0.0
 30
0.0
 70
   128
  0
VERTEX
  5
1EE
330
1ED
100
AcDbEntity
  8
Spigoli visibili(ISO)
100
AcDbVertex
100
AcDb2dVertex
 10
660.9467078461189
 20
486.2517062685116
 30
0.0
  0
VERTEX
  5
1EF
330
1ED
100
AcDbEntity
  8
Spigoli visibili(ISO)
100
AcDbVertex
100
AcDb2dVertex
 10
660.6192007872352
 20
486.0694790576695
 30
0.0
  0
VERTEX
  5
1F1
330
1ED
100
AcDbEntity
  8
Spigoli visibili(ISO)
100
AcDbVertex
100
AcDb2dVertex
 10
660.3025487560228
 20
485.9069311204456
 30
0.0
  0
VERTEX
  5
1F2
330
1ED
100
AcDbEntity
  8
Spigoli visibili(ISO)
100
AcDbVertex
100
AcDb2dVertex
 10
659.995397347339
 20
485.7629272073004
 30
0.0
  0
VERTEX
  5
1F3
330
1ED
100
AcDbEntity
  8
Spigoli visibili(ISO)
100
AcDbVertex
100
AcDb2dVertex
 10
659.6965352858598
 20
485.6364756758523
 30
0.0
  0
VERTEX
  5
1F4
330
1ED
100
AcDbEntity
  8
Spigoli visibili(ISO)
100
AcDbVertex
100
AcDb2dVertex
 10
659.404817674236
 20
485.5267239224775
 30
0.0
  0
VERTEX
  5
1F5
330
1ED
100
AcDbEntity
  8
Spigoli visibili(ISO)
100
AcDbVertex
100
AcDb2dVertex
 10
659.1192224745434
 20
485.4329451544481
 30
0.0
  0
VERTEX
  5
1F6
330
1ED
100
AcDbEntity
  8
Spigoli visibili(ISO)
100
AcDbVertex
100
AcDb2dVertex
 10
658.8387185120566
 20
485.354566082721
 30
0.0
  0
VERTEX
  5
1F7
330
1ED
100
AcDbEntity
  8
Spigoli visibili(ISO)
100
AcDbVertex
100
AcDb2dVertex
 10
658.5624127936053
 20
485.2910808921014
 30
0.0
  0
VERTEX
  5
1F8
330
1ED
100
AcDbEntity
  8
Spigoli visibili(ISO)
100
AcDbVertex
100
AcDb2dVertex
 10
658.2893816817585
 20
485.2421004414902
 30
0.0
  0
VERTEX
  5
1F9
330
1ED
100
AcDbEntity
  8
Spigoli visibili(ISO)
100
AcDbVertex
100
AcDb2dVertex
 10
658.0188219243787
 20
485.2073233340304
 30
0.0
  0
VERTEX
  5
1FA
330
1ED
100
AcDbEntity
  8
Spigoli visibili(ISO)
100
AcDbVertex
100
AcDb2dVertex
 10
657.7498597028153
 20
485.1865387711003
 30
0.0
  0
VERTEX
  5
1FB
330
1ED
100
AcDbEntity
  8
Spigoli visibili(ISO)
100
AcDbVertex
100
AcDb2dVertex
 10
657.4817035170556
 20
485.1796261724526
 30
0.0
  0
VERTEX
  5
1FC
330
1ED
100
AcDbEntity
  8
Spigoli visibili(ISO)
100
AcDbVertex
100
AcDb2dVertex
 10
657.2135668153509
 20
485.1865410911485
 30
0.0
  0
VERTEX
  5
1FD
330
1ED
100
AcDbEntity
  8
Spigoli visibili(ISO)
100
AcDbVertex
100
AcDb2dVertex
 10
656.9446115127658
 20
485.20732844142
 30
0.0
  0
VERTEX
  5
1FE
330
1ED
100
AcDbEntity
  8
Spigoli visibili(ISO)
100
AcDbVertex
100
AcDb2dVertex
 10
656.6740228874232
 20
485.2420985170787
 30
0.0
  0
VERTEX
  5
1FF
330
1ED
100
AcDbEntity
  8
Spigoli visibili(ISO)
100
AcDbVertex
100
AcDb2dVertex
 10
656.4010132917005
 20
485.2910840914979
 30
0.0
  0
VERTEX
  5
200
330
1ED
100
AcDbEntity
  8
Spigoli visibili(ISO)
100
AcDbVertex
100
AcDb2dVertex
 10
656.1247030040034
 20
485.3545717066985
 30
0.0
  0
VERTEX
  5
201
330
1ED
100
AcDbEntity
  8
Spigoli visibili(ISO)
100
AcDbVertex
100
AcDb2dVertex
 10
655.8442000732723
 20
485.4329538250675
 30
0.0
  0
VERTEX
  5
202
330
1ED
100
AcDbEntity
  8
Spigoli visibili(ISO)
100
AcDbVertex
100
AcDb2dVertex
 10
655.5585997004491
 20
485.5267193126941
 30
0.0
  0
VERTEX
  5
203
330
1ED
100
AcDbEntity
  8
Spigoli visibili(ISO)
100
AcDbVertex
100
AcDb2dVertex
 10
655.2668896903735
 20
485.6364691413626
 30
0.0
  0
VERTEX
  5
204
330
1ED
100
AcDbEntity
  8
Spigoli visibili(ISO)
100
AcDbVertex
100
AcDb2dVertex
 10
654.9680278221587
 20
485.7629304736167
 30
0.0
  0
VERTEX
  5
205
330
1ED
100
AcDbEntity
  8
Spigoli visibili(ISO)
100
AcDbVertex
100
AcDb2dVertex
 10
654.6608828936105
 20
485.9069318239654
 30
0.0
  0
VERTEX
  5
206
330
1ED
100
AcDbEntity
  8
Spigoli visibili(ISO)
100
AcDbVertex
100
AcDb2dVertex
 10
654.3442200176295
 20
486.0694709125951
 30
0.0
  0
VERTEX
  5
207
330
1ED
100
AcDbEntity
  8
Spigoli visibili(ISO)
100
AcDbVertex
100
AcDb2dVertex
 10
654.0167190370066
 20
486.2517039116396
 30
0.0
  0
SEQEND
  5
1F0
330
1ED
100
AcDbEntity
  8
Spigoli visibili(ISO)
  0
LINE
  5
208
330
6C
100
AcDbEntity
  8
Spigoli visibili(ISO)
100
AcDbLine
 10
660.9467107613669
 20
486.251702372092
 30
0.0
 11
660.9467107613669
 21
492.1039593707065
 31
0.0
  0
POLYLINE
  5
209
330
6C
100
AcDbEntity
  8
Spigoli visibili(ISO)
100
AcDb2dPolyline
 66
     1
 10
0.0
 20
0.0
 30
0.0
 70
   128
  0
VERTEX
  5
20A
330
209
100
AcDbEntity
  8
Spigoli visibili(ISO)
100
AcDbVertex
100
AcDb2dVertex
 10
660.9467100598076
 20
492.1039575537979
 30
0.0
  0
VERTEX
  5
20B
330
209
100
AcDbEntity
  8
Spigoli visibili(ISO)
100
AcDbVertex
100
AcDb2dVertex
 10
661.6017312736409
 20
492.2861907686694
 30
0.0
  0
VERTEX
  5
20D
330
209
100
AcDbEntity
  8
Spigoli visibili(ISO)
100
AcDbVertex
100
AcDb2dVertex
 10
662.2350585547119
 20
492.4487228597974
 30
0.0
  0
VERTEX
  5
20E
330
209
100
AcDbEntity
  8
Spigoli visibili(ISO)
100
AcDbVertex
100
AcDb2dVertex
 10
662.8493486153479
 20
492.5927286728737
 30
0.0
  0
VERTEX
  5
20F
330
209
100
AcDbEntity
  8
Spigoli visibili(ISO)
100
AcDbVertex
100
AcDb2dVertex
 10
663.4470542268797
 20
492.7191860576481
 30
0.0
  0
VERTEX
  5
210
330
209
100
AcDbEntity
  8
Spigoli visibili(ISO)
100
AcDbVertex
100
AcDb2dVertex
 10
664.030485649353
 20
492.8289387733762
 30
0.0
  0
VERTEX
  5
211
330
209
100
AcDbEntity
  8
Spigoli visibili(ISO)
100
AcDbVertex
100
AcDb2dVertex
 10
664.601697050098
 20
492.9227134278775
 30
0.0
  0
VERTEX
  5
212
330
209
100
AcDbEntity
  8
Spigoli visibili(ISO)
100
AcDbVertex
100
AcDb2dVertex
 10
665.1626952517963
 20
493.0010963531485
 30
0.0
  0
VERTEX
  5
213
330
209
100
AcDbEntity
  8
Spigoli visibili(ISO)
100
AcDbVertex
100
AcDb2dVertex
 10
665.7153280066495
 20
493.0645790944117
 30
0.0
  0
VERTEX
  5
214
330
209
100
AcDbEntity
  8
Spigoli visibili(ISO)
100
AcDbVertex
100
AcDb2dVertex
 10
666.2613417148929
 20
493.1135642155822
 30
0.0
  0
VERTEX
  5
215
330
209
100
AcDbEntity
  8
Spigoli visibili(ISO)
100
AcDbVertex
100
AcDb2dVertex
 10
666.8024943876946
 20
493.1483388435451
 30
0.0
  0
VERTEX
  5
216
330
209
100
AcDbEntity
  8
Spigoli visibili(ISO)
100
AcDbVertex
100
AcDb2dVertex
 10
667.3404058546687
 20
493.1691226313373
 30
0.0
  0
VERTEX
  5
217
330
209
100
AcDbEntity
  8
Spigoli visibili(ISO)
100
AcDbVertex
100
AcDb2dVertex
 10
667.8767087934268
 20
493.1760388282928
 30
0.0
  0
VERTEX
  5
218
330
209
100
AcDbEntity
  8
Spigoli visibili(ISO)
100
AcDbVertex
100
AcDb2dVertex
 10
668.4130106629247
 20
493.1691167541751
 30
0.0
  0
VERTEX
  5
219
330
209
100
AcDbEntity
  8
Spigoli visibili(ISO)
100
AcDbVertex
100
AcDb2dVertex
 10
668.9509348627804
 20
493.1483369083638
 30
0.0
  0
VERTEX
  5
21A
330
209
100
AcDbEntity
  8
Spigoli visibili(ISO)
100
AcDbVertex
100
AcDb2dVertex
 10
669.4920777183579
 20
493.1135573106761
 30
0.0
  0
VERTEX
  5
21B
330
209
100
AcDbEntity
  8
Spigoli visibili(ISO)
100
AcDbVertex
100
AcDb2dVertex
 10
670.0381079771318
 20
493.0645739326846
 30
0.0
  0
VERTEX
  5
21C
330
209
100
AcDbEntity
  8
Spigoli visibili(ISO)
100
AcDbVertex
100
AcDb2dVertex
 10
670.5907268864359
 20
493.0010946218569
 30
0.0
  0
VERTEX
  5
21D
330
209
100
AcDbEntity
  8
Spigoli visibili(ISO)
100
AcDbVertex
100
AcDb2dVertex
 10
671.1517234378459
 20
492.922706840368
 30
0.0
  0
VERTEX
  5
21E
330
209
100
AcDbEntity
  8
Spigoli visibili(ISO)
100
AcDbVertex
100
AcDb2dVertex
 10
671.7229406302545
 20
492.8289467558771
 30
0.0
  0
VERTEX
  5
21F
330
209
100
AcDbEntity
  8
Spigoli visibili(ISO)
100
AcDbVertex
100
AcDb2dVertex
 10
672.3063638326468
 20
492.7191883728982
 30
0.0
  0
VERTEX
  5
220
330
209
100
AcDbEntity
  8
Spigoli visibili(ISO)
100
AcDbVertex
100
AcDb2dVertex
 10
672.9040882842411
 20
492.5927316569048
 30
0.0
  0
VERTEX
  5
221
330
209
100
AcDbEntity
  8
Spigoli visibili(ISO)
100
AcDbVertex
100
AcDb2dVertex
 10
673.5183718647419
 20
492.4487322064873
 30
0.0
  0
VERTEX
  5
222
330
209
100
AcDbEntity
  8
Spigoli visibili(ISO)
100
AcDbVertex
100
AcDb2dVertex
 10
674.1516915757868
 20
492.286188025491
 30
0.0
  0
VERTEX
  5
223
330
209
100
AcDbEntity
  8
Spigoli visibili(ISO)
100
AcDbVertex
100
AcDb2dVertex
 10
674.8067067113595
 20
492.1039610304758
 30
0.0
  0
SEQEND
  5
20C
330
209
100
AcDbEntity
  8
Spigoli visibili(ISO)
  0
POLYLINE
  5
224
330
6C
100
AcDbEntity
  8
Spigoli visibili(ISO)
100
AcDb2dPolyline
 66
     1
 10
0.0
 20
0.0
 30
0.0
 70
   128
  0
VERTEX
  5
225
330
224
100
AcDbEntity
  8
Spigoli visibili(ISO)
100
AcDbVertex
100
AcDb2dVertex
 10
674.806703879138
 20
486.2517002285259
 30
0.0
  0
VERTEX
  5
226
330
224
100
AcDbEntity
  8
Spigoli visibili(ISO)
100
AcDbVertex
100
AcDb2dVertex
 10
674.1516832838375
 20
486.069476530318
 30
0.0
  0
VERTEX
  5
228
330
224
100
AcDbEntity
  8
Spigoli visibili(ISO)
100
AcDbVertex
100
AcDb2dVertex
 10
673.5183744175611
 20
485.9069336854606
 30
0.0
  0
VERTEX
  5
229
330
224
100
AcDbEntity
  8
Spigoli visibili(ISO)
100
AcDbVertex
100
AcDb2dVertex
 10
672.9040843569251
 20
485.7629278723843
 30
0.0
  0
VERTEX
  5
22A
330
224
100
AcDbEntity
  8
Spigoli visibili(ISO)
100
AcDbVertex
100
AcDb2dVertex
 10
672.3063597120659
 20
485.6364717246756
 30
0.0
  0
VERTEX
  5
22B
330
224
100
AcDbEntity
  8
Spigoli visibili(ISO)
100
AcDbVertex
100
AcDb2dVertex
 10
671.7229473229199
 20
485.5267177718817
 30
0.0
  0
VERTEX
  5
22C
330
224
100
AcDbEntity
  8
Spigoli visibili(ISO)
100
AcDbVertex
100
AcDb2dVertex
 10
671.1517175073804
 20
485.4329538711098
 30
0.0
  0
VERTEX
  5
22D
330
224
100
AcDbEntity
  8
Spigoli visibili(ISO)
100
AcDbVertex
100
AcDb2dVertex
 10
670.5907193056821
 20
485.3545709458388
 30
0.0
  0
VERTEX
  5
22E
330
224
100
AcDbEntity
  8
Spigoli visibili(ISO)
100
AcDbVertex
100
AcDb2dVertex
 10
670.0381055841563
 20
485.2910869675099
 30
0.0
  0
VERTEX
  5
22F
330
224
100
AcDbEntity
  8
Spigoli visibili(ISO)
100
AcDbVertex
100
AcDb2dVertex
 10
669.4920728425857
 20
485.2421030834052
 30
0.0
  0
VERTEX
  5
230
330
224
100
AcDbEntity
  8
Spigoli visibili(ISO)
100
AcDbVertex
100
AcDb2dVertex
 10
668.9509201697837
 20
485.2073284554424
 30
0.0
  0
VERTEX
  5
231
330
224
100
AcDbEntity
  8
Spigoli visibili(ISO)
100
AcDbVertex
100
AcDb2dVertex
 10
668.4130087028097
 20
485.1865446676502
 30
0.0
  0
VERTEX
  5
232
330
224
100
AcDbEntity
  8
Spigoli visibili(ISO)
100
AcDbVertex
100
AcDb2dVertex
 10
667.8767057640516
 20
485.1796284706947
 30
0.0
  0
VERTEX
  5
233
330
224
100
AcDbEntity
  8
Spigoli visibili(ISO)
100
AcDbVertex
100
AcDb2dVertex
 10
667.3404032760209
 20
485.1865410281487
 30
0.0
  0
VERTEX
  5
234
330
224
100
AcDbEntity
  8
Spigoli visibili(ISO)
100
AcDbVertex
100
AcDb2dVertex
 10
666.8024981094923
 20
485.2073196368942
 30
0.0
  0
VERTEX
  5
235
330
224
100
AcDbEntity
  8
Spigoli visibili(ISO)
100
AcDbVertex
100
AcDb2dVertex
 10
666.261355253915
 20
485.2420992345819
 30
0.0
  0
VERTEX
  5
236
330
224
100
AcDbEntity
  8
Spigoli visibili(ISO)
100
AcDbVertex
100
AcDb2dVertex
 10
665.7153249951411
 20
485.2910826125735
 30
0.0
  0
VERTEX
  5
237
330
224
100
AcDbEntity
  8
Spigoli visibili(ISO)
100
AcDbVertex
100
AcDb2dVertex
 10
665.1626876710424
 20
485.3545726771305
 30
0.0
  0
VERTEX
  5
238
330
224
100
AcDbEntity
  8
Spigoli visibili(ISO)
100
AcDbVertex
100
AcDb2dVertex
 10
664.6017095344269
 20
485.4329497048899
 30
0.0
  0
VERTEX
  5
239
330
224
100
AcDbEntity
  8
Spigoli visibili(ISO)
100
AcDbVertex
100
AcDb2dVertex
 10
664.0304739272239
 20
485.5267205431102
 30
0.0
  0
VERTEX
  5
23A
330
224
100
AcDbEntity
  8
Spigoli visibili(ISO)
100
AcDbVertex
100
AcDb2dVertex
 10
663.4470697581591
 20
485.6364776890234
 30
0.0
  0
VERTEX
  5
23B
330
224
100
AcDbEntity
  8
Spigoli visibili(ISO)
100
AcDbVertex
100
AcDb2dVertex
 10
662.8493453065646
 20
485.7629344050168
 30
0.0
  0
VERTEX
  5
23C
330
224
100
AcDbEntity
  8
Spigoli visibili(ISO)
100
AcDbVertex
100
AcDb2dVertex
 10
662.2350426927367
 20
485.9069350925002
 30
0.0
  0
VERTEX
  5
23D
330
224
100
AcDbEntity
  8
Spigoli visibili(ISO)
100
AcDbVertex
100
AcDb2dVertex
 10
661.601742015019
 20
486.0694780364307
 30
0.0
  0
VERTEX
  5
23E
330
224
100
AcDbEntity
  8
Spigoli visibili(ISO)
100
AcDbVertex
100
AcDb2dVertex
 10
660.9467078461189
 20
486.2517062685116
 30
0.0
  0
SEQEND
  5
227
330
224
100
AcDbEntity
  8
Spigoli visibili(ISO)
  0
LINE
  5
23F
330
6C
100
AcDbEntity
  8
Spigoli visibili(ISO)
100
AcDbLine
 10
674.8067107613671
 20
492.1039593707067
 30
0.0
 11
674.8067107613671
 21
486.251702372092
 31
0.0
  0
POLYLINE
  5
240
330
6C
100
AcDbEntity
  8
Spigoli visibili(ISO)
100
AcDb2dPolyline
 66
     1
 10
0.0
 20
0.0
 30
0.0
 70
   128
  0
VERTEX
  5
241
330
240
100
AcDbEntity
  8
Spigoli visibili(ISO)
100
AcDbVertex
100
AcDb2dVertex
 10
674.8067067113595
 20
492.1039610304758
 30
0.0
  0
VERTEX
  5
242
330
240
100
AcDbEntity
  8
Spigoli visibili(ISO)
100
AcDbVertex
100
AcDb2dVertex
 10
675.1342137702431
 20
492.286188241318
 30
0.0
  0
VERTEX
  5
244
330
240
100
AcDbEntity
  8
Spigoli visibili(ISO)
100
AcDbVertex
100
AcDb2dVertex
 10
675.4508842162501
 20
492.4487254248123
 30
0.0
  0
VERTEX
  5
245
330
240
100
AcDbEntity
  8
Spigoli visibili(ISO)
100
AcDbVertex
100
AcDb2dVertex
 10
675.7580165916065
 20
492.5927305750234
 30
0.0
  0
VERTEX
  5
246
330
240
100
AcDbEntity
  8
Spigoli visibili(ISO)
100
AcDbVertex
100
AcDb2dVertex
 10
676.0568792716186
 20
492.719191623135
 30
0.0
  0
VERTEX
  5
247
330
240
100
AcDbEntity
  8
Spigoli visibili(ISO)
100
AcDbVertex
100
AcDb2dVertex
 10
676.3485968832424
 20
492.8289433765099
 30
0.0
  0
VERTEX
  5
248
330
240
100
AcDbEntity
  8
Spigoli visibili(ISO)
100
AcDbVertex
100
AcDb2dVertex
 10
676.6342104977296
 20
492.9227113908098
 30
0.0
  0
VERTEX
  5
249
330
240
100
AcDbEntity
  8
Spigoli visibili(ISO)
100
AcDbVertex
100
AcDb2dVertex
 10
676.9146954268888
 20
493.0010916996028
 30
0.0
  0
VERTEX
  5
24A
330
240
100
AcDbEntity
  8
Spigoli visibili(ISO)
100
AcDbVertex
100
AcDb2dVertex
 10
677.1910201786676
 20
493.0645756531566
 30
0.0
  0
VERTEX
  5
24B
330
240
100
AcDbEntity
  8
Spigoli visibili(ISO)
100
AcDbVertex
100
AcDb2dVertex
 10
677.4640322571872
 20
493.1135573408335
 30
0.0
  0
VERTEX
  5
24C
330
240
100
AcDbEntity
  8
Spigoli visibili(ISO)
100
AcDbVertex
100
AcDb2dVertex
 10
677.7346110478942
 20
493.1483332112276
 30
0.0
  0
VERTEX
  5
24D
330
240
100
AcDbEntity
  8
Spigoli visibili(ISO)
100
AcDbVertex
100
AcDb2dVertex
 10
678.0035542361304
 20
493.1691190112234
 30
0.0
  0
VERTEX
  5
24E
330
240
100
AcDbEntity
  8
Spigoli visibili(ISO)
100
AcDbVertex
100
AcDb2dVertex
 10
678.2717104218898
 20
493.1760316098712
 30
0.0
  0
VERTEX
  5
24F
330
240
100
AcDbEntity
  8
Spigoli visibili(ISO)
100
AcDbVertex
100
AcDb2dVertex
 10
678.5398661569218
 20
493.1691154541095
 30
0.0
  0
VERTEX
  5
250
330
240
100
AcDbEntity
  8
Spigoli visibili(ISO)
100
AcDbVertex
100
AcDb2dVertex
 10
678.8088220780399
 20
493.1483376205017
 30
0.0
  0
VERTEX
  5
251
330
240
100
AcDbEntity
  8
Spigoli visibili(ISO)
100
AcDbVertex
100
AcDb2dVertex
 10
679.0793910515225
 20
493.1135592652451
 30
0.0
  0
VERTEX
  5
252
330
240
100
AcDbEntity
  8
Spigoli visibili(ISO)
100
AcDbVertex
100
AcDb2dVertex
 10
679.352400647245
 20
493.0645736908259
 30
0.0
  0
VERTEX
  5
253
330
240
100
AcDbEntity
  8
Spigoli visibili(ISO)
100
AcDbVertex
100
AcDb2dVertex
 10
679.628711553475
 20
493.0010955922888
 30
0.0
  0
VERTEX
  5
254
330
240
100
AcDbEntity
  8
Spigoli visibili(ISO)
100
AcDbVertex
100
AcDb2dVertex
 10
679.9092144842062
 20
492.9227134739199
 30
0.0
  0
VERTEX
  5
255
330
240
100
AcDbEntity
  8
Spigoli visibili(ISO)
100
AcDbVertex
100
AcDb2dVertex
 10
680.1948338903569
 20
492.8289467492275
 30
0.0
  0
VERTEX
  5
256
330
240
100
AcDbEntity
  8
Spigoli visibili(ISO)
100
AcDbVertex
100
AcDb2dVertex
 10
680.4865432818994
 20
492.7191874038953
 30
0.0
  0
VERTEX
  5
257
330
240
100
AcDbEntity
  8
Spigoli visibili(ISO)
100
AcDbVertex
100
AcDb2dVertex
 10
680.7853867353196
 20
492.5927368253708
 30
0.0
  0
VERTEX
  5
258
330
240
100
AcDbEntity
  8
Spigoli visibili(ISO)
100
AcDbVertex
100
AcDb2dVertex
 10
681.0925500786623
 20
492.4487247212926
 30
0.0
  0
VERTEX
  5
259
330
240
100
AcDbEntity
  8
Spigoli visibili(ISO)
100
AcDbVertex
100
AcDb2dVertex
 10
681.409193921316
 20
492.2861868697287
 30
0.0
  0
VERTEX
  5
25A
330
240
100
AcDbEntity
  8
Spigoli visibili(ISO)
100
AcDbVertex
100
AcDb2dVertex
 10
681.7367145537992
 20
492.103962150282
 30
0.0
  0
SEQEND
  5
243
330
240
100
AcDbEntity
  8
Spigoli visibili(ISO)
  0
POLYLINE
  5
25B
330
6C
100
AcDbEntity
  8
Spigoli visibili(ISO)
100
AcDb2dPolyline
 66
     1
 10
0.0
 20
0.0
 30
0.0
 70
   128
  0
VERTEX
  5
25C
330
25B
100
AcDbEntity
  8
Spigoli visibili(ISO)
100
AcDbVertex
100
AcDb2dVertex
 10
681.7367117215779
 20
486.251701348332
 30
0.0
  0
VERTEX
  5
25D
330
25B
100
AcDbEntity
  8
Spigoli visibili(ISO)
100
AcDbVertex
100
AcDb2dVertex
 10
681.4092046626942
 20
486.0694741374899
 30
0.0
  0
VERTEX
  5
25F
330
25B
100
AcDbEntity
  8
Spigoli visibili(ISO)
100
AcDbVertex
100
AcDb2dVertex
 10
681.092534216687
 20
485.9069369539954
 30
0.0
  0
VERTEX
  5
260
330
25B
100
AcDbEntity
  8
Spigoli visibili(ISO)
100
AcDbVertex
100
AcDb2dVertex
 10
680.7854018413308
 20
485.7629318037845
 30
0.0
  0
VERTEX
  5
261
330
25B
100
AcDbEntity
  8
Spigoli visibili(ISO)
100
AcDbVertex
100
AcDb2dVertex
 10
680.4865391613186
 20
485.6364707556727
 30
0.0
  0
VERTEX
  5
262
330
25B
100
AcDbEntity
  8
Spigoli visibili(ISO)
100
AcDbVertex
100
AcDb2dVertex
 10
680.194821549695
 20
485.526719002298
 30
0.0
  0
VERTEX
  5
263
330
25B
100
AcDbEntity
  8
Spigoli visibili(ISO)
100
AcDbVertex
100
AcDb2dVertex
 10
679.9092079352078
 20
485.432950987998
 30
0.0
  0
VERTEX
  5
264
330
25B
100
AcDbEntity
  8
Spigoli visibili(ISO)
100
AcDbVertex
100
AcDb2dVertex
 10
679.6287230060486
 20
485.354570679205
 30
0.0
  0
VERTEX
  5
265
330
25B
100
AcDbEntity
  8
Spigoli visibili(ISO)
100
AcDbVertex
100
AcDb2dVertex
 10
679.3523982542697
 20
485.2910867256513
 30
0.0
  0
VERTEX
  5
266
330
25B
100
AcDbEntity
  8
Spigoli visibili(ISO)
100
AcDbVertex
100
AcDb2dVertex
 10
679.0793861757503
 20
485.2421050379744
 30
0.0
  0
VERTEX
  5
267
330
25B
100
AcDbEntity
  8
Spigoli visibili(ISO)
100
AcDbVertex
100
AcDb2dVertex
 10
678.8088264183705
 20
485.2073279305144
 30
0.0
  0
VERTEX
  5
268
330
25B
100
AcDbEntity
  8
Spigoli visibili(ISO)
100
AcDbVertex
100
AcDb2dVertex
 10
678.539864196807
 20
485.1865433675845
 30
0.0
  0
VERTEX
  5
269
330
25B
100
AcDbEntity
  8
Spigoli visibili(ISO)
100
AcDbVertex
100
AcDb2dVertex
 10
678.2717080110476
 20
485.1796307689367
 30
0.0
  0
VERTEX
  5
26A
330
25B
100
AcDbEntity
  8
Spigoli visibili(ISO)
100
AcDbVertex
100
AcDb2dVertex
 10
678.0035516574823
 20
485.1865374080348
 30
0.0
  0
VERTEX
  5
26B
330
25B
100
AcDbEntity
  8
Spigoli visibili(ISO)
100
AcDbVertex
100
AcDb2dVertex
 10
677.7345963548974
 20
485.2073247583062
 30
0.0
  0
VERTEX
  5
26C
330
25B
100
AcDbEntity
  8
Spigoli visibili(ISO)
100
AcDbVertex
100
AcDb2dVertex
 10
677.4640273814148
 20
485.2421031135627
 30
0.0
  0
VERTEX
  5
26D
330
25B
100
AcDbEntity
  8
Spigoli visibili(ISO)
100
AcDbVertex
100
AcDb2dVertex
 10
677.1910171671593
 20
485.2910791713183
 30
0.0
  0
VERTEX
  5
26E
330
25B
100
AcDbEntity
  8
Spigoli visibili(ISO)
100
AcDbVertex
100
AcDb2dVertex
 10
676.9147068794623
 20
485.354566786519
 30
0.0
  0
VERTEX
  5
26F
330
25B
100
AcDbEntity
  8
Spigoli visibili(ISO)
100
AcDbVertex
100
AcDb2dVertex
 10
676.6342039487311
 20
485.432948904888
 30
0.0
  0
VERTEX
  5
270
330
25B
100
AcDbEntity
  8
Spigoli visibili(ISO)
100
AcDbVertex
100
AcDb2dVertex
 10
676.3486035759078
 20
485.5267143925146
 30
0.0
  0
VERTEX
  5
271
330
25B
100
AcDbEntity
  8
Spigoli visibili(ISO)
100
AcDbVertex
100
AcDb2dVertex
 10
676.0568941843652
 20
485.6364737378467
 30
0.0
  0
VERTEX
  5
272
330
25B
100
AcDbEntity
  8
Spigoli visibili(ISO)
100
AcDbVertex
100
AcDb2dVertex
 10
675.7580316976177
 20
485.7629255534371
 30
0.0
  0
VERTEX
  5
273
330
25B
100
AcDbEntity
  8
Spigoli visibili(ISO)
100
AcDbVertex
100
AcDb2dVertex
 10
675.4508873876022
 20
485.9069364204494
 30
0.0
  0
VERTEX
  5
274
330
25B
100
AcDbEntity
  8
Spigoli visibili(ISO)
100
AcDbVertex
100
AcDb2dVertex
 10
675.1342245116212
 20
486.0694755090792
 30
0.0
  0
VERTEX
  5
275
330
25B
100
AcDbEntity
  8
Spigoli visibili(ISO)
100
AcDbVertex
100
AcDb2dVertex
 10
674.806703879138
 20
486.2517002285259
 30
0.0
  0
SEQEND
  5
25E
330
25B
100
AcDbEntity
  8
Spigoli visibili(ISO)
  0
LINE
  5
276
330
6C
100
AcDbEntity
  8
Spigoli visibili(ISO)
100
AcDbLine
 10
681.7367107613669
 20
492.1039593707065
 30
0.0
 11
681.7367107613669
 21
486.251702372092
 31
0.0
  0
LINE
  5
277
330
6C
100
AcDbEntity
  8
Spigoli visibili(ISO)
100
AcDbLine
 10
655.876710761367
 20
485.1778308713993
 30
0.0
 11
654.0167107613671
 21
486.251702372092
 31
0.0
  0
LINE
  5
278
330
6C
100
AcDbEntity
  8
Spigoli visibili(ISO)
100
AcDbLine
 10
679.8767107613671
 20
485.1778308713993
 30
0.0
 11
681.7367107613669
 21
486.251702372092
 31
0.0
  0
LINE
  5
279
330
6C
100
AcDbEntity
  8
Spigoli visibili(ISO)
100
AcDbLine
 10
679.8767107613668
 20
493.1778308713993
 30
0.0
 11
681.7367107613669
 21
492.1039593707065
 31
0.0
  0
LINE
  5
27A
330
6C
100
AcDbEntity
  8
Spigoli visibili(ISO)
100
AcDbLine
 10
655.876710761367
 20
493.1778308713993
 30
0.0
 11
654.0167107613671
 21
492.1039593707065
 31
0.0
  0
LINE
  5
27B
330
6C
100
AcDbEntity
  8
Spigoli visibili(ISO)
100
AcDbLine
 10
654.0167107613671
 20
504.1039593707066
 30
0.0
 11
654.0167107613672
 21
498.251702372092
 31
0.0
  0
POLYLINE
  5
27C
330
6C
100
AcDbEntity
  8
Spigoli visibili(ISO)
100
AcDb2dPolyline
 66
     1
 10
0.0
 20
0.0
 30
0.0
 70
   128
  0
VERTEX
  5
27D
330
27C
100
AcDbEntity
  8
Spigoli visibili(ISO)
100
AcDbVertex
100
AcDb2dVertex
 10
654.016702217368
 20
504.1039564339918
 30
0.0
  0
VERTEX
  5
27E
330
27C
100
AcDbEntity
  8
Spigoli visibili(ISO)
100
AcDbVertex
100
AcDb2dVertex
 10
654.3442283095788
 20
504.2861824077681
 30
0.0
  0
VERTEX
  5
280
330
27C
100
AcDbEntity
  8
Spigoli visibili(ISO)
100
AcDbVertex
100
AcDb2dVertex
 10
654.6608803407914
 20
504.448730344992
 30
0.0
  0
VERTEX
  5
281
330
27C
100
AcDbEntity
  8
Spigoli visibili(ISO)
100
AcDbVertex
100
AcDb2dVertex
 10
654.9680317494749
 20
504.5927342581371
 30
0.0
  0
VERTEX
  5
282
330
27C
100
AcDbEntity
  8
Spigoli visibili(ISO)
100
AcDbVertex
100
AcDb2dVertex
 10
655.2668938109543
 20
504.7191857895852
 30
0.0
  0
VERTEX
  5
283
330
27C
100
AcDbEntity
  8
Spigoli visibili(ISO)
100
AcDbVertex
100
AcDb2dVertex
 10
655.5585923892508
 20
504.8289387800259
 30
0.0
  0
VERTEX
  5
284
330
27C
100
AcDbEntity
  8
Spigoli visibili(ISO)
100
AcDbVertex
100
AcDb2dVertex
 10
655.8442060037378
 20
504.9227067943258
 30
0.0
  0
VERTEX
  5
285
330
27C
100
AcDbEntity
  8
Spigoli visibili(ISO)
100
AcDbVertex
100
AcDb2dVertex
 10
656.1247105847574
 20
505.0010953827166
 30
0.0
  0
VERTEX
  5
286
330
27C
100
AcDbEntity
  8
Spigoli visibili(ISO)
100
AcDbVertex
100
AcDb2dVertex
 10
656.4010163032088
 20
505.0645805733362
 30
0.0
  0
VERTEX
  5
287
330
27C
100
AcDbEntity
  8
Spigoli visibili(ISO)
100
AcDbVertex
100
AcDb2dVertex
 10
656.6740283817283
 20
505.1135622610131
 30
0.0
  0
VERTEX
  5
288
330
27C
100
AcDbEntity
  8
Spigoli visibili(ISO)
100
AcDbVertex
100
AcDb2dVertex
 10
656.9446071724354
 20
505.1483381314072
 30
0.0
  0
VERTEX
  5
289
330
27C
100
AcDbEntity
  8
Spigoli visibili(ISO)
100
AcDbVertex
100
AcDb2dVertex
 10
657.2135503606716
 20
505.169123931403
 30
0.0
  0
VERTEX
  5
28A
330
27C
100
AcDbEntity
  8
Spigoli visibili(ISO)
100
AcDbVertex
100
AcDb2dVertex
 10
657.481706546431
 20
505.1760365300508
 30
0.0
  0
VERTEX
  5
28B
330
27C
100
AcDbEntity
  8
Spigoli visibili(ISO)
100
AcDbVertex
100
AcDb2dVertex
 10
657.7498622814631
 20
505.169120374289
 30
0.0
  0
VERTEX
  5
28C
330
27C
100
AcDbEntity
  8
Spigoli visibili(ISO)
100
AcDbVertex
100
AcDb2dVertex
 10
658.0188175840483
 20
505.1483330240176
 30
0.0
  0
VERTEX
  5
28D
330
27C
100
AcDbEntity
  8
Spigoli visibili(ISO)
100
AcDbVertex
100
AcDb2dVertex
 10
658.2893871760638
 20
505.1135641854248
 30
0.0
  0
VERTEX
  5
28E
330
27C
100
AcDbEntity
  8
Spigoli visibili(ISO)
100
AcDbVertex
100
AcDb2dVertex
 10
658.5624158051136
 20
505.0645773739397
 30
0.0
  0
VERTEX
  5
28F
330
27C
100
AcDbEntity
  8
Spigoli visibili(ISO)
100
AcDbVertex
100
AcDb2dVertex
 10
658.8387260928107
 20
505.001089758739
 30
0.0
  0
VERTEX
  5
290
330
27C
100
AcDbEntity
  8
Spigoli visibili(ISO)
100
AcDbVertex
100
AcDb2dVertex
 10
659.1192099902145
 20
504.9227088774358
 30
0.0
  0
VERTEX
  5
291
330
27C
100
AcDbEntity
  8
Spigoli visibili(ISO)
100
AcDbVertex
100
AcDb2dVertex
 10
659.4048293963652
 20
504.8289421527434
 30
0.0
  0
VERTEX
  5
292
330
27C
100
AcDbEntity
  8
Spigoli visibili(ISO)
100
AcDbVertex
100
AcDb2dVertex
 10
659.6965394064406
 20
504.719192324075
 30
0.0
  0
VERTEX
  5
293
330
27C
100
AcDbEntity
  8
Spigoli visibili(ISO)
100
AcDbVertex
100
AcDb2dVertex
 10
659.9954012746553
 20
504.592730991821
 30
0.0
  0
VERTEX
  5
294
330
27C
100
AcDbEntity
  8
Spigoli visibili(ISO)
100
AcDbVertex
100
AcDb2dVertex
 10
660.3025462032036
 20
504.4487296414722
 30
0.0
  0
VERTEX
  5
295
330
27C
100
AcDbEntity
  8
Spigoli visibili(ISO)
100
AcDbVertex
100
AcDb2dVertex
 10
660.6191900458573
 20
504.2861917899083
 30
0.0
  0
VERTEX
  5
296
330
27C
100
AcDbEntity
  8
Spigoli visibili(ISO)
100
AcDbVertex
100
AcDb2dVertex
 10
660.9467100598076
 20
504.1039575537979
 30
0.0
  0
SEQEND
  5
27F
330
27C
100
AcDbEntity
  8
Spigoli visibili(ISO)
  0
POLYLINE
  5
297
330
6C
100
AcDbEntity
  8
Spigoli visibili(ISO)
100
AcDb2dPolyline
 66
     1
 10
0.0
 20
0.0
 30
0.0
 70
   128
  0
VERTEX
  5
298
330
297
100
AcDbEntity
  8
Spigoli visibili(ISO)
100
AcDbVertex
100
AcDb2dVertex
 10
660.9467078461191
 20
498.2517062685116
 30
0.0
  0
VERTEX
  5
299
330
297
100
AcDbEntity
  8
Spigoli visibili(ISO)
100
AcDbVertex
100
AcDb2dVertex
 10
660.6192007872355
 20
498.0694790576695
 30
0.0
  0
VERTEX
  5
29B
330
297
100
AcDbEntity
  8
Spigoli visibili(ISO)
100
AcDbVertex
100
AcDb2dVertex
 10
660.3025487560228
 20
497.9069311204455
 30
0.0
  0
VERTEX
  5
29C
330
297
100
AcDbEntity
  8
Spigoli visibili(ISO)
100
AcDbVertex
100
AcDb2dVertex
 10
659.995397347339
 20
497.7629272073004
 30
0.0
  0
VERTEX
  5
29D
330
297
100
AcDbEntity
  8
Spigoli visibili(ISO)
100
AcDbVertex
100
AcDb2dVertex
 10
659.6965352858599
 20
497.6364756758523
 30
0.0
  0
VERTEX
  5
29E
330
297
100
AcDbEntity
  8
Spigoli visibili(ISO)
100
AcDbVertex
100
AcDb2dVertex
 10
659.4048176742362
 20
497.5267239224775
 30
0.0
  0
VERTEX
  5
29F
330
297
100
AcDbEntity
  8
Spigoli visibili(ISO)
100
AcDbVertex
100
AcDb2dVertex
 10
659.1192224745435
 20
497.4329451544481
 30
0.0
  0
VERTEX
  5
2A0
330
297
100
AcDbEntity
  8
Spigoli visibili(ISO)
100
AcDbVertex
100
AcDb2dVertex
 10
658.8387185120568
 20
497.354566082721
 30
0.0
  0
VERTEX
  5
2A1
330
297
100
AcDbEntity
  8
Spigoli visibili(ISO)
100
AcDbVertex
100
AcDb2dVertex
 10
658.5624127936055
 20
497.2910808921014
 30
0.0
  0
VERTEX
  5
2A2
330
297
100
AcDbEntity
  8
Spigoli visibili(ISO)
100
AcDbVertex
100
AcDb2dVertex
 10
658.2893816817585
 20
497.2421004414903
 30
0.0
  0
VERTEX
  5
2A3
330
297
100
AcDbEntity
  8
Spigoli visibili(ISO)
100
AcDbVertex
100
AcDb2dVertex
 10
658.0188219243787
 20
497.2073233340304
 30
0.0
  0
VERTEX
  5
2A4
330
297
100
AcDbEntity
  8
Spigoli visibili(ISO)
100
AcDbVertex
100
AcDb2dVertex
 10
657.7498597028153
 20
497.1865387711004
 30
0.0
  0
VERTEX
  5
2A5
330
297
100
AcDbEntity
  8
Spigoli visibili(ISO)
100
AcDbVertex
100
AcDb2dVertex
 10
657.4817035170558
 20
497.1796261724526
 30
0.0
  0
VERTEX
  5
2A6
330
297
100
AcDbEntity
  8
Spigoli visibili(ISO)
100
AcDbVertex
100
AcDb2dVertex
 10
657.2135668153509
 20
497.1865410911485
 30
0.0
  0
VERTEX
  5
2A7
330
297
100
AcDbEntity
  8
Spigoli visibili(ISO)
100
AcDbVertex
100
AcDb2dVertex
 10
656.9446115127659
 20
497.20732844142
 30
0.0
  0
VERTEX
  5
2A8
330
297
100
AcDbEntity
  8
Spigoli visibili(ISO)
100
AcDbVertex
100
AcDb2dVertex
 10
656.6740228874232
 20
497.2420985170787
 30
0.0
  0
VERTEX
  5
2A9
330
297
100
AcDbEntity
  8
Spigoli visibili(ISO)
100
AcDbVertex
100
AcDb2dVertex
 10
656.4010132917005
 20
497.2910840914978
 30
0.0
  0
VERTEX
  5
2AA
330
297
100
AcDbEntity
  8
Spigoli visibili(ISO)
100
AcDbVertex
100
AcDb2dVertex
 10
656.1247030040036
 20
497.3545717066985
 30
0.0
  0
VERTEX
  5
2AB
330
297
100
AcDbEntity
  8
Spigoli visibili(ISO)
100
AcDbVertex
100
AcDb2dVertex
 10
655.8442000732724
 20
497.4329538250676
 30
0.0
  0
VERTEX
  5
2AC
330
297
100
AcDbEntity
  8
Spigoli visibili(ISO)
100
AcDbVertex
100
AcDb2dVertex
 10
655.5585997004491
 20
497.5267193126941
 30
0.0
  0
VERTEX
  5
2AD
330
297
100
AcDbEntity
  8
Spigoli visibili(ISO)
100
AcDbVertex
100
AcDb2dVertex
 10
655.2668896903735
 20
497.6364691413627
 30
0.0
  0
VERTEX
  5
2AE
330
297
100
AcDbEntity
  8
Spigoli visibili(ISO)
100
AcDbVertex
100
AcDb2dVertex
 10
654.968027822159
 20
497.7629304736167
 30
0.0
  0
VERTEX
  5
2AF
330
297
100
AcDbEntity
  8
Spigoli visibili(ISO)
100
AcDbVertex
100
AcDb2dVertex
 10
654.6608828936107
 20
497.9069318239653
 30
0.0
  0
VERTEX
  5
2B0
330
297
100
AcDbEntity
  8
Spigoli visibili(ISO)
100
AcDbVertex
100
AcDb2dVertex
 10
654.3442200176295
 20
498.0694709125952
 30
0.0
  0
VERTEX
  5
2B1
330
297
100
AcDbEntity
  8
Spigoli visibili(ISO)
100
AcDbVertex
100
AcDb2dVertex
 10
654.0167190370066
 20
498.2517039116396
 30
0.0
  0
SEQEND
  5
29A
330
297
100
AcDbEntity
  8
Spigoli visibili(ISO)
  0
LINE
  5
2B2
330
6C
100
AcDbEntity
  8
Spigoli visibili(ISO)
100
AcDbLine
 10
660.946710761367
 20
498.251702372092
 30
0.0
 11
660.946710761367
 21
504.1039593707066
 31
0.0
  0
POLYLINE
  5
2B3
330
6C
100
AcDbEntity
  8
Spigoli visibili(ISO)
100
AcDb2dPolyline
 66
     1
 10
0.0
 20
0.0
 30
0.0
 70
   128
  0
VERTEX
  5
2B4
330
2B3
100
AcDbEntity
  8
Spigoli visibili(ISO)
100
AcDbVertex
100
AcDb2dVertex
 10
660.9467100598076
 20
504.1039575537979
 30
0.0
  0
VERTEX
  5
2B5
330
2B3
100
AcDbEntity
  8
Spigoli visibili(ISO)
100
AcDbVertex
100
AcDb2dVertex
 10
661.601731273641
 20
504.2861907686694
 30
0.0
  0
VERTEX
  5
2B7
330
2B3
100
AcDbEntity
  8
Spigoli visibili(ISO)
100
AcDbVertex
100
AcDb2dVertex
 10
662.2350585547119
 20
504.4487228597973
 30
0.0
  0
VERTEX
  5
2B8
330
2B3
100
AcDbEntity
  8
Spigoli visibili(ISO)
100
AcDbVertex
100
AcDb2dVertex
 10
662.8493486153479
 20
504.5927286728737
 30
0.0
  0
VERTEX
  5
2B9
330
2B3
100
AcDbEntity
  8
Spigoli visibili(ISO)
100
AcDbVertex
100
AcDb2dVertex
 10
663.4470542268798
 20
504.7191860576481
 30
0.0
  0
VERTEX
  5
2BA
330
2B3
100
AcDbEntity
  8
Spigoli visibili(ISO)
100
AcDbVertex
100
AcDb2dVertex
 10
664.0304856493531
 20
504.8289387733762
 30
0.0
  0
VERTEX
  5
2BB
330
2B3
100
AcDbEntity
  8
Spigoli visibili(ISO)
100
AcDbVertex
100
AcDb2dVertex
 10
664.601697050098
 20
504.9227134278776
 30
0.0
  0
VERTEX
  5
2BC
330
2B3
100
AcDbEntity
  8
Spigoli visibili(ISO)
100
AcDbVertex
100
AcDb2dVertex
 10
665.1626952517965
 20
505.0010963531486
 30
0.0
  0
VERTEX
  5
2BD
330
2B3
100
AcDbEntity
  8
Spigoli visibili(ISO)
100
AcDbVertex
100
AcDb2dVertex
 10
665.7153280066495
 20
505.0645790944117
 30
0.0
  0
VERTEX
  5
2BE
330
2B3
100
AcDbEntity
  8
Spigoli visibili(ISO)
100
AcDbVertex
100
AcDb2dVertex
 10
666.2613417148929
 20
505.1135642155822
 30
0.0
  0
VERTEX
  5
2BF
330
2B3
100
AcDbEntity
  8
Spigoli visibili(ISO)
100
AcDbVertex
100
AcDb2dVertex
 10
666.8024943876948
 20
505.1483388435451
 30
0.0
  0
VERTEX
  5
2C0
330
2B3
100
AcDbEntity
  8
Spigoli visibili(ISO)
100
AcDbVertex
100
AcDb2dVertex
 10
667.3404058546688
 20
505.1691226313373
 30
0.0
  0
VERTEX
  5
2C1
330
2B3
100
AcDbEntity
  8
Spigoli visibili(ISO)
100
AcDbVertex
100
AcDb2dVertex
 10
667.876708793427
 20
505.1760388282928
 30
0.0
  0
VERTEX
  5
2C2
330
2B3
100
AcDbEntity
  8
Spigoli visibili(ISO)
100
AcDbVertex
100
AcDb2dVertex
 10
668.4130106629249
 20
505.1691167541751
 30
0.0
  0
VERTEX
  5
2C3
330
2B3
100
AcDbEntity
  8
Spigoli visibili(ISO)
100
AcDbVertex
100
AcDb2dVertex
 10
668.9509348627807
 20
505.1483369083638
 30
0.0
  0
VERTEX
  5
2C4
330
2B3
100
AcDbEntity
  8
Spigoli visibili(ISO)
100
AcDbVertex
100
AcDb2dVertex
 10
669.492077718358
 20
505.1135573106761
 30
0.0
  0
VERTEX
  5
2C5
330
2B3
100
AcDbEntity
  8
Spigoli visibili(ISO)
100
AcDbVertex
100
AcDb2dVertex
 10
670.0381079771318
 20
505.0645739326846
 30
0.0
  0
VERTEX
  5
2C6
330
2B3
100
AcDbEntity
  8
Spigoli visibili(ISO)
100
AcDbVertex
100
AcDb2dVertex
 10
670.590726886436
 20
505.0010946218569
 30
0.0
  0
VERTEX
  5
2C7
330
2B3
100
AcDbEntity
  8
Spigoli visibili(ISO)
100
AcDbVertex
100
AcDb2dVertex
 10
671.1517234378459
 20
504.9227068403681
 30
0.0
  0
VERTEX
  5
2C8
330
2B3
100
AcDbEntity
  8
Spigoli visibili(ISO)
100
AcDbVertex
100
AcDb2dVertex
 10
671.7229406302545
 20
504.8289467558771
 30
0.0
  0
VERTEX
  5
2C9
330
2B3
100
AcDbEntity
  8
Spigoli visibili(ISO)
100
AcDbVertex
100
AcDb2dVertex
 10
672.3063638326468
 20
504.7191883728982
 30
0.0
  0
VERTEX
  5
2CA
330
2B3
100
AcDbEntity
  8
Spigoli visibili(ISO)
100
AcDbVertex
100
AcDb2dVertex
 10
672.9040882842412
 20
504.5927316569049
 30
0.0
  0
VERTEX
  5
2CB
330
2B3
100
AcDbEntity
  8
Spigoli visibili(ISO)
100
AcDbVertex
100
AcDb2dVertex
 10
673.5183718647419
 20
504.4487322064873
 30
0.0
  0
VERTEX
  5
2CC
330
2B3
100
AcDbEntity
  8
Spigoli visibili(ISO)
100
AcDbVertex
100
AcDb2dVertex
 10
674.1516915757869
 20
504.286188025491
 30
0.0
  0
VERTEX
  5
2CD
330
2B3
100
AcDbEntity
  8
Spigoli visibili(ISO)
100
AcDbVertex
100
AcDb2dVertex
 10
674.8067067113596
 20
504.1039610304759
 30
0.0
  0
SEQEND
  5
2B6
330
2B3
100
AcDbEntity
  8
Spigoli visibili(ISO)
  0
POLYLINE
  5
2CE
330
6C
100
AcDbEntity
  8
Spigoli visibili(ISO)
100
AcDb2dPolyline
 66
     1
 10
0.0
 20
0.0
 30
0.0
 70
   128
  0
VERTEX
  5
2CF
330
2CE
100
AcDbEntity
  8
Spigoli visibili(ISO)
100
AcDbVertex
100
AcDb2dVertex
 10
674.8067038791382
 20
498.2517002285259
 30
0.0
  0
VERTEX
  5
2D0
330
2CE
100
AcDbEntity
  8
Spigoli visibili(ISO)
100
AcDbVertex
100
AcDb2dVertex
 10
674.1516832838376
 20
498.069476530318
 30
0.0
  0
VERTEX
  5
2D2
330
2CE
100
AcDbEntity
  8
Spigoli visibili(ISO)
100
AcDbVertex
100
AcDb2dVertex
 10
673.5183744175611
 20
497.9069336854606
 30
0.0
  0
VERTEX
  5
2D3
330
2CE
100
AcDbEntity
  8
Spigoli visibili(ISO)
100
AcDbVertex
100
AcDb2dVertex
 10
672.9040843569251
 20
497.7629278723843
 30
0.0
  0
VERTEX
  5
2D4
330
2CE
100
AcDbEntity
  8
Spigoli visibili(ISO)
100
AcDbVertex
100
AcDb2dVertex
 10
672.3063597120659
 20
497.6364717246756
 30
0.0
  0
VERTEX
  5
2D5
330
2CE
100
AcDbEntity
  8
Spigoli visibili(ISO)
100
AcDbVertex
100
AcDb2dVertex
 10
671.72294732292
 20
497.5267177718817
 30
0.0
  0
VERTEX
  5
2D6
330
2CE
100
AcDbEntity
  8
Spigoli visibili(ISO)
100
AcDbVertex
100
AcDb2dVertex
 10
671.1517175073805
 20
497.4329538711099
 30
0.0
  0
VERTEX
  5
2D7
330
2CE
100
AcDbEntity
  8
Spigoli visibili(ISO)
100
AcDbVertex
100
AcDb2dVertex
 10
670.5907193056822
 20
497.3545709458389
 30
0.0
  0
VERTEX
  5
2D8
330
2CE
100
AcDbEntity
  8
Spigoli visibili(ISO)
100
AcDbVertex
100
AcDb2dVertex
 10
670.0381055841565
 20
497.2910869675099
 30
0.0
  0
VERTEX
  5
2D9
330
2CE
100
AcDbEntity
  8
Spigoli visibili(ISO)
100
AcDbVertex
100
AcDb2dVertex
 10
669.4920728425858
 20
497.2421030834053
 30
0.0
  0
VERTEX
  5
2DA
330
2CE
100
AcDbEntity
  8
Spigoli visibili(ISO)
100
AcDbVertex
100
AcDb2dVertex
 10
668.9509201697839
 20
497.2073284554424
 30
0.0
  0
VERTEX
  5
2DB
330
2CE
100
AcDbEntity
  8
Spigoli visibili(ISO)
100
AcDbVertex
100
AcDb2dVertex
 10
668.4130087028097
 20
497.1865446676503
 30
0.0
  0
VERTEX
  5
2DC
330
2CE
100
AcDbEntity
  8
Spigoli visibili(ISO)
100
AcDbVertex
100
AcDb2dVertex
 10
667.8767057640516
 20
497.1796284706947
 30
0.0
  0
VERTEX
  5
2DD
330
2CE
100
AcDbEntity
  8
Spigoli visibili(ISO)
100
AcDbVertex
100
AcDb2dVertex
 10
667.340403276021
 20
497.1865410281487
 30
0.0
  0
VERTEX
  5
2DE
330
2CE
100
AcDbEntity
  8
Spigoli visibili(ISO)
100
AcDbVertex
100
AcDb2dVertex
 10
666.8024981094925
 20
497.2073196368942
 30
0.0
  0
VERTEX
  5
2DF
330
2CE
100
AcDbEntity
  8
Spigoli visibili(ISO)
100
AcDbVertex
100
AcDb2dVertex
 10
666.261355253915
 20
497.2420992345819
 30
0.0
  0
VERTEX
  5
2E0
330
2CE
100
AcDbEntity
  8
Spigoli visibili(ISO)
100
AcDbVertex
100
AcDb2dVertex
 10
665.7153249951411
 20
497.2910826125735
 30
0.0
  0
VERTEX
  5
2E1
330
2CE
100
AcDbEntity
  8
Spigoli visibili(ISO)
100
AcDbVertex
100
AcDb2dVertex
 10
665.1626876710427
 20
497.3545726771305
 30
0.0
  0
VERTEX
  5
2E2
330
2CE
100
AcDbEntity
  8
Spigoli visibili(ISO)
100
AcDbVertex
100
AcDb2dVertex
 10
664.601709534427
 20
497.4329497048899
 30
0.0
  0
VERTEX
  5
2E3
330
2CE
100
AcDbEntity
  8
Spigoli visibili(ISO)
100
AcDbVertex
100
AcDb2dVertex
 10
664.0304739272242
 20
497.5267205431103
 30
0.0
  0
VERTEX
  5
2E4
330
2CE
100
AcDbEntity
  8
Spigoli visibili(ISO)
100
AcDbVertex
100
AcDb2dVertex
 10
663.4470697581591
 20
497.6364776890235
 30
0.0
  0
VERTEX
  5
2E5
330
2CE
100
AcDbEntity
  8
Spigoli visibili(ISO)
100
AcDbVertex
100
AcDb2dVertex
 10
662.8493453065646
 20
497.7629344050169
 30
0.0
  0
VERTEX
  5
2E6
330
2CE
100
AcDbEntity
  8
Spigoli visibili(ISO)
100
AcDbVertex
100
AcDb2dVertex
 10
662.2350426927367
 20
497.9069350925002
 30
0.0
  0
VERTEX
  5
2E7
330
2CE
100
AcDbEntity
  8
Spigoli visibili(ISO)
100
AcDbVertex
100
AcDb2dVertex
 10
661.6017420150192
 20
498.0694780364307
 30
0.0
  0
VERTEX
  5
2E8
330
2CE
100
AcDbEntity
  8
Spigoli visibili(ISO)
100
AcDbVertex
100
AcDb2dVertex
 10
660.9467078461191
 20
498.2517062685116
 30
0.0
  0
SEQEND
  5
2D1
330
2CE
100
AcDbEntity
  8
Spigoli visibili(ISO)
  0
LINE
  5
2E9
330
6C
100
AcDbEntity
  8
Spigoli visibili(ISO)
100
AcDbLine
 10
674.8067107613673
 20
504.1039593707066
 30
0.0
 11
674.8067107613673
 21
498.251702372092
 31
0.0
  0
POLYLINE
  5
2EA
330
6C
100
AcDbEntity
  8
Spigoli visibili(ISO)
100
AcDb2dPolyline
 66
     1
 10
0.0
 20
0.0
 30
0.0
 70
   128
  0
VERTEX
  5
2EB
330
2EA
100
AcDbEntity
  8
Spigoli visibili(ISO)
100
AcDbVertex
100
AcDb2dVertex
 10
674.8067067113596
 20
504.1039610304759
 30
0.0
  0
VERTEX
  5
2EC
330
2EA
100
AcDbEntity
  8
Spigoli visibili(ISO)
100
AcDbVertex
100
AcDb2dVertex
 10
675.1342137702432
 20
504.286188241318
 30
0.0
  0
VERTEX
  5
2EE
330
2EA
100
AcDbEntity
  8
Spigoli visibili(ISO)
100
AcDbVertex
100
AcDb2dVertex
 10
675.4508842162501
 20
504.4487254248124
 30
0.0
  0
VERTEX
  5
2EF
330
2EA
100
AcDbEntity
  8
Spigoli visibili(ISO)
100
AcDbVertex
100
AcDb2dVertex
 10
675.7580165916066
 20
504.5927305750234
 30
0.0
  0
VERTEX
  5
2F0
330
2EA
100
AcDbEntity
  8
Spigoli visibili(ISO)
100
AcDbVertex
100
AcDb2dVertex
 10
676.0568792716187
 20
504.719191623135
 30
0.0
  0
VERTEX
  5
2F1
330
2EA
100
AcDbEntity
  8
Spigoli visibili(ISO)
100
AcDbVertex
100
AcDb2dVertex
 10
676.3485968832425
 20
504.82894337651
 30
0.0
  0
VERTEX
  5
2F2
330
2EA
100
AcDbEntity
  8
Spigoli visibili(ISO)
100
AcDbVertex
100
AcDb2dVertex
 10
676.6342104977296
 20
504.9227113908099
 30
0.0
  0
VERTEX
  5
2F3
330
2EA
100
AcDbEntity
  8
Spigoli visibili(ISO)
100
AcDbVertex
100
AcDb2dVertex
 10
676.9146954268888
 20
505.0010916996028
 30
0.0
  0
VERTEX
  5
2F4
330
2EA
100
AcDbEntity
  8
Spigoli visibili(ISO)
100
AcDbVertex
100
AcDb2dVertex
 10
677.1910201786677
 20
505.0645756531566
 30
0.0
  0
VERTEX
  5
2F5
330
2EA
100
AcDbEntity
  8
Spigoli visibili(ISO)
100
AcDbVertex
100
AcDb2dVertex
 10
677.4640322571872
 20
505.1135573408335
 30
0.0
  0
VERTEX
  5
2F6
330
2EA
100
AcDbEntity
  8
Spigoli visibili(ISO)
100
AcDbVertex
100
AcDb2dVertex
 10
677.7346110478942
 20
505.1483332112276
 30
0.0
  0
VERTEX
  5
2F7
330
2EA
100
AcDbEntity
  8
Spigoli visibili(ISO)
100
AcDbVertex
100
AcDb2dVertex
 10
678.0035542361304
 20
505.1691190112234
 30
0.0
  0
VERTEX
  5
2F8
330
2EA
100
AcDbEntity
  8
Spigoli visibili(ISO)
100
AcDbVertex
100
AcDb2dVertex
 10
678.2717104218899
 20
505.1760316098712
 30
0.0
  0
VERTEX
  5
2F9
330
2EA
100
AcDbEntity
  8
Spigoli visibili(ISO)
100
AcDbVertex
100
AcDb2dVertex
 10
678.539866156922
 20
505.1691154541095
 30
0.0
  0
VERTEX
  5
2FA
330
2EA
100
AcDbEntity
  8
Spigoli visibili(ISO)
100
AcDbVertex
100
AcDb2dVertex
 10
678.8088220780401
 20
505.1483376205017
 30
0.0
  0
VERTEX
  5
2FB
330
2EA
100
AcDbEntity
  8
Spigoli visibili(ISO)
100
AcDbVertex
100
AcDb2dVertex
 10
679.0793910515225
 20
505.1135592652451
 30
0.0
  0
VERTEX
  5
2FC
330
2EA
100
AcDbEntity
  8
Spigoli visibili(ISO)
100
AcDbVertex
100
AcDb2dVertex
 10
679.3524006472453
 20
505.064573690826
 30
0.0
  0
VERTEX
  5
2FD
330
2EA
100
AcDbEntity
  8
Spigoli visibili(ISO)
100
AcDbVertex
100
AcDb2dVertex
 10
679.6287115534751
 20
505.0010955922888
 30
0.0
  0
VERTEX
  5
2FE
330
2EA
100
AcDbEntity
  8
Spigoli visibili(ISO)
100
AcDbVertex
100
AcDb2dVertex
 10
679.9092144842063
 20
504.9227134739198
 30
0.0
  0
VERTEX
  5
2FF
330
2EA
100
AcDbEntity
  8
Spigoli visibili(ISO)
100
AcDbVertex
100
AcDb2dVertex
 10
680.1948338903569
 20
504.8289467492275
 30
0.0
  0
VERTEX
  5
300
330
2EA
100
AcDbEntity
  8
Spigoli visibili(ISO)
100
AcDbVertex
100
AcDb2dVertex
 10
680.4865432818996
 20
504.7191874038953
 30
0.0
  0
VERTEX
  5
301
330
2EA
100
AcDbEntity
  8
Spigoli visibili(ISO)
100
AcDbVertex
100
AcDb2dVertex
 10
680.7853867353197
 20
504.5927368253709
 30
0.0
  0
VERTEX
  5
302
330
2EA
100
AcDbEntity
  8
Spigoli visibili(ISO)
100
AcDbVertex
100
AcDb2dVertex
 10
681.0925500786624
 20
504.4487247212926
 30
0.0
  0
VERTEX
  5
303
330
2EA
100
AcDbEntity
  8
Spigoli visibili(ISO)
100
AcDbVertex
100
AcDb2dVertex
 10
681.4091939213162
 20
504.2861868697287
 30
0.0
  0
VERTEX
  5
304
330
2EA
100
AcDbEntity
  8
Spigoli visibili(ISO)
100
AcDbVertex
100
AcDb2dVertex
 10
681.7367145537993
 20
504.1039621502819
 30
0.0
  0
SEQEND
  5
2ED
330
2EA
100
AcDbEntity
  8
Spigoli visibili(ISO)
  0
POLYLINE
  5
305
330
6C
100
AcDbEntity
  8
Spigoli visibili(ISO)
100
AcDb2dPolyline
 66
     1
 10
0.0
 20
0.0
 30
0.0
 70
   128
  0
VERTEX
  5
306
330
305
100
AcDbEntity
  8
Spigoli visibili(ISO)
100
AcDbVertex
100
AcDb2dVertex
 10
681.7367117215779
 20
498.251701348332
 30
0.0
  0
VERTEX
  5
307
330
305
100
AcDbEntity
  8
Spigoli visibili(ISO)
100
AcDbVertex
100
AcDb2dVertex
 10
681.4092046626942
 20
498.06947413749
 30
0.0
  0
VERTEX
  5
309
330
305
100
AcDbEntity
  8
Spigoli visibili(ISO)
100
AcDbVertex
100
AcDb2dVertex
 10
681.0925342166872
 20
497.9069369539955
 30
0.0
  0
VERTEX
  5
30A
330
305
100
AcDbEntity
  8
Spigoli visibili(ISO)
100
AcDbVertex
100
AcDb2dVertex
 10
680.7854018413308
 20
497.7629318037845
 30
0.0
  0
VERTEX
  5
30B
330
305
100
AcDbEntity
  8
Spigoli visibili(ISO)
100
AcDbVertex
100
AcDb2dVertex
 10
680.4865391613189
 20
497.6364707556728
 30
0.0
  0
VERTEX
  5
30C
330
305
100
AcDbEntity
  8
Spigoli visibili(ISO)
100
AcDbVertex
100
AcDb2dVertex
 10
680.194821549695
 20
497.526719002298
 30
0.0
  0
VERTEX
  5
30D
330
305
100
AcDbEntity
  8
Spigoli visibili(ISO)
100
AcDbVertex
100
AcDb2dVertex
 10
679.9092079352079
 20
497.432950987998
 30
0.0
  0
VERTEX
  5
30E
330
305
100
AcDbEntity
  8
Spigoli visibili(ISO)
100
AcDbVertex
100
AcDb2dVertex
 10
679.6287230060486
 20
497.354570679205
 30
0.0
  0
VERTEX
  5
30F
330
305
100
AcDbEntity
  8
Spigoli visibili(ISO)
100
AcDbVertex
100
AcDb2dVertex
 10
679.3523982542697
 20
497.2910867256513
 30
0.0
  0
VERTEX
  5
310
330
305
100
AcDbEntity
  8
Spigoli visibili(ISO)
100
AcDbVertex
100
AcDb2dVertex
 10
679.0793861757503
 20
497.2421050379744
 30
0.0
  0
VERTEX
  5
311
330
305
100
AcDbEntity
  8
Spigoli visibili(ISO)
100
AcDbVertex
100
AcDb2dVertex
 10
678.8088264183705
 20
497.2073279305144
 30
0.0
  0
VERTEX
  5
312
330
305
100
AcDbEntity
  8
Spigoli visibili(ISO)
100
AcDbVertex
100
AcDb2dVertex
 10
678.5398641968071
 20
497.1865433675845
 30
0.0
  0
VERTEX
  5
313
330
305
100
AcDbEntity
  8
Spigoli visibili(ISO)
100
AcDbVertex
100
AcDb2dVertex
 10
678.2717080110476
 20
497.1796307689367
 30
0.0
  0
VERTEX
  5
314
330
305
100
AcDbEntity
  8
Spigoli visibili(ISO)
100
AcDbVertex
100
AcDb2dVertex
 10
678.0035516574826
 20
497.1865374080348
 30
0.0
  0
VERTEX
  5
315
330
305
100
AcDbEntity
  8
Spigoli visibili(ISO)
100
AcDbVertex
100
AcDb2dVertex
 10
677.7345963548974
 20
497.2073247583062
 30
0.0
  0
VERTEX
  5
316
330
305
100
AcDbEntity
  8
Spigoli visibili(ISO)
100
AcDbVertex
100
AcDb2dVertex
 10
677.4640273814149
 20
497.2421031135627
 30
0.0
  0
VERTEX
  5
317
330
305
100
AcDbEntity
  8
Spigoli visibili(ISO)
100
AcDbVertex
100
AcDb2dVertex
 10
677.1910171671594
 20
497.2910791713183
 30
0.0
  0
VERTEX
  5
318
330
305
100
AcDbEntity
  8
Spigoli visibili(ISO)
100
AcDbVertex
100
AcDb2dVertex
 10
676.9147068794623
 20
497.354566786519
 30
0.0
  0
VERTEX
  5
319
330
305
100
AcDbEntity
  8
Spigoli visibili(ISO)
100
AcDbVertex
100
AcDb2dVertex
 10
676.6342039487312
 20
497.432948904888
 30
0.0
  0
VERTEX
  5
31A
330
305
100
AcDbEntity
  8
Spigoli visibili(ISO)
100
AcDbVertex
100
AcDb2dVertex
 10
676.3486035759079
 20
497.5267143925146
 30
0.0
  0
VERTEX
  5
31B
330
305
100
AcDbEntity
  8
Spigoli visibili(ISO)
100
AcDbVertex
100
AcDb2dVertex
 10
676.0568941843652
 20
497.6364737378467
 30
0.0
  0
VERTEX
  5
31C
330
305
100
AcDbEntity
  8
Spigoli visibili(ISO)
100
AcDbVertex
100
AcDb2dVertex
 10
675.7580316976177
 20
497.7629255534371
 30
0.0
  0
VERTEX
  5
31D
330
305
100
AcDbEntity
  8
Spigoli visibili(ISO)
100
AcDbVertex
100
AcDb2dVertex
 10
675.4508873876022
 20
497.9069364204494
 30
0.0
  0
VERTEX
  5
31E
330
305
100
AcDbEntity
  8
Spigoli visibili(ISO)
100
AcDbVertex
100
AcDb2dVertex
 10
675.1342245116213
 20
498.0694755090792
 30
0.0
  0
VERTEX
  5
31F
330
305
100
AcDbEntity
  8
Spigoli visibili(ISO)
100
AcDbVertex
100
AcDb2dVertex
 10
674.8067038791382
 20
498.2517002285259
 30
0.0
  0
SEQEND
  5
308
330
305
100
AcDbEntity
  8
Spigoli visibili(ISO)
  0
LINE
  5
320
330
6C
100
AcDbEntity
  8
Spigoli visibili(ISO)
100
AcDbLine
 10
681.7367107613671
 20
504.1039593707066
 30
0.0
 11
681.7367107613671
 21
498.251702372092
 31
0.0
  0
LINE
  5
321
330
6C
100
AcDbEntity
  8
Spigoli visibili(ISO)
100
AcDbLine
 10
679.8767107613671
 20
505.1778308713993
 30
0.0
 11
655.8767107613673
 21
505.1778308713993
 31
0.0
  0
LINE
  5
322
330
6C
100
AcDbEntity
  8
Spigoli visibili(ISO)
100
AcDbLine
 10
655.876710761367
 20
497.1778308713993
 30
0.0
 11
654.0167107613671
 21
498.251702372092
 31
0.0
  0
LINE
  5
323
330
6C
100
AcDbEntity
  8
Spigoli visibili(ISO)
100
AcDbLine
 10
679.8767107613671
 20
497.1778308713993
 30
0.0
 11
681.7367107613671
 21
498.251702372092
 31
0.0
  0
LINE
  5
324
330
6C
100
AcDbEntity
  8
Spigoli visibili(ISO)
100
AcDbLine
 10
679.8767107613671
 20
505.1778308713993
 30
0.0
 11
681.7367107613671
 21
504.1039593707066
 31
0.0
  0
LINE
  5
325
330
6C
100
AcDbEntity
  8
Spigoli visibili(ISO)
100
AcDbLine
 10
655.8767107613671
 20
505.1778308713993
 30
0.0
 11
654.0167107613671
 21
504.1039593707066
 31
0.0
  0
LINE
  5
326
330
6C
100
AcDbEntity
  8
Spigoli visibili(ISO)
100
AcDbLine
 10
486.0167107613671
 20
492.1039593707067
 30
0.0
 11
486.0167107613671
 21
486.251702372092
 31
0.0
  0
POLYLINE
  5
327
330
6C
100
AcDbEntity
  8
Spigoli visibili(ISO)
100
AcDb2dPolyline
 66
     1
 10
0.0
 20
0.0
 30
0.0
 70
   128
  0
VERTEX
  5
328
330
327
100
AcDbEntity
  8
Spigoli visibili(ISO)
100
AcDbVertex
100
AcDb2dVertex
 10
486.0167022173678
 20
492.1039564339918
 30
0.0
  0
VERTEX
  5
329
330
327
100
AcDbEntity
  8
Spigoli visibili(ISO)
100
AcDbVertex
100
AcDb2dVertex
 10
486.3442283095787
 20
492.2861824077681
 30
0.0
  0
VERTEX
  5
32B
330
327
100
AcDbEntity
  8
Spigoli visibili(ISO)
100
AcDbVertex
100
AcDb2dVertex
 10
486.6608803407913
 20
492.4487303449921
 30
0.0
  0
VERTEX
  5
32C
330
327
100
AcDbEntity
  8
Spigoli visibili(ISO)
100
AcDbVertex
100
AcDb2dVertex
 10
486.968031749475
 20
492.5927342581372
 30
0.0
  0
VERTEX
  5
32D
330
327
100
AcDbEntity
  8
Spigoli visibili(ISO)
100
AcDbVertex
100
AcDb2dVertex
 10
487.2668938109542
 20
492.7191857895852
 30
0.0
  0
VERTEX
  5
32E
330
327
100
AcDbEntity
  8
Spigoli visibili(ISO)
100
AcDbVertex
100
AcDb2dVertex
 10
487.5585923892507
 20
492.8289387800259
 30
0.0
  0
VERTEX
  5
32F
330
327
100
AcDbEntity
  8
Spigoli visibili(ISO)
100
AcDbVertex
100
AcDb2dVertex
 10
487.8442060037378
 20
492.9227067943258
 30
0.0
  0
VERTEX
  5
330
330
327
100
AcDbEntity
  8
Spigoli visibili(ISO)
100
AcDbVertex
100
AcDb2dVertex
 10
488.1247105847574
 20
493.0010953827166
 30
0.0
  0
VERTEX
  5
331
330
327
100
AcDbEntity
  8
Spigoli visibili(ISO)
100
AcDbVertex
100
AcDb2dVertex
 10
488.4010163032087
 20
493.0645805733361
 30
0.0
  0
VERTEX
  5
332
330
327
100
AcDbEntity
  8
Spigoli visibili(ISO)
100
AcDbVertex
100
AcDb2dVertex
 10
488.6740283817283
 20
493.113562261013
 30
0.0
  0
VERTEX
  5
333
330
327
100
AcDbEntity
  8
Spigoli visibili(ISO)
100
AcDbVertex
100
AcDb2dVertex
 10
488.9446071724353
 20
493.1483381314072
 30
0.0
  0
VERTEX
  5
334
330
327
100
AcDbEntity
  8
Spigoli visibili(ISO)
100
AcDbVertex
100
AcDb2dVertex
 10
489.2135503606716
 20
493.1691239314029
 30
0.0
  0
VERTEX
  5
335
330
327
100
AcDbEntity
  8
Spigoli visibili(ISO)
100
AcDbVertex
100
AcDb2dVertex
 10
489.481706546431
 20
493.1760365300507
 30
0.0
  0
VERTEX
  5
336
330
327
100
AcDbEntity
  8
Spigoli visibili(ISO)
100
AcDbVertex
100
AcDb2dVertex
 10
489.7498622814631
 20
493.169120374289
 30
0.0
  0
VERTEX
  5
337
330
327
100
AcDbEntity
  8
Spigoli visibili(ISO)
100
AcDbVertex
100
AcDb2dVertex
 10
490.0188175840481
 20
493.1483330240176
 30
0.0
  0
VERTEX
  5
338
330
327
100
AcDbEntity
  8
Spigoli visibili(ISO)
100
AcDbVertex
100
AcDb2dVertex
 10
490.2893871760636
 20
493.1135641854249
 30
0.0
  0
VERTEX
  5
339
330
327
100
AcDbEntity
  8
Spigoli visibili(ISO)
100
AcDbVertex
100
AcDb2dVertex
 10
490.5624158051136
 20
493.0645773739398
 30
0.0
  0
VERTEX
  5
33A
330
327
100
AcDbEntity
  8
Spigoli visibili(ISO)
100
AcDbVertex
100
AcDb2dVertex
 10
490.8387260928106
 20
493.001089758739
 30
0.0
  0
VERTEX
  5
33B
330
327
100
AcDbEntity
  8
Spigoli visibili(ISO)
100
AcDbVertex
100
AcDb2dVertex
 10
491.1192099902145
 20
492.9227088774358
 30
0.0
  0
VERTEX
  5
33C
330
327
100
AcDbEntity
  8
Spigoli visibili(ISO)
100
AcDbVertex
100
AcDb2dVertex
 10
491.4048293963651
 20
492.8289421527434
 30
0.0
  0
VERTEX
  5
33D
330
327
100
AcDbEntity
  8
Spigoli visibili(ISO)
100
AcDbVertex
100
AcDb2dVertex
 10
491.6965394064406
 20
492.719192324075
 30
0.0
  0
VERTEX
  5
33E
330
327
100
AcDbEntity
  8
Spigoli visibili(ISO)
100
AcDbVertex
100
AcDb2dVertex
 10
491.9954012746552
 20
492.5927309918209
 30
0.0
  0
VERTEX
  5
33F
330
327
100
AcDbEntity
  8
Spigoli visibili(ISO)
100
AcDbVertex
100
AcDb2dVertex
 10
492.3025462032035
 20
492.4487296414723
 30
0.0
  0
VERTEX
  5
340
330
327
100
AcDbEntity
  8
Spigoli visibili(ISO)
100
AcDbVertex
100
AcDb2dVertex
 10
492.6191900458571
 20
492.2861917899083
 30
0.0
  0
VERTEX
  5
341
330
327
100
AcDbEntity
  8
Spigoli visibili(ISO)
100
AcDbVertex
100
AcDb2dVertex
 10
492.9467100598075
 20
492.1039575537979
 30
0.0
  0
SEQEND
  5
32A
330
327
100
AcDbEntity
  8
Spigoli visibili(ISO)
  0
POLYLINE
  5
342
330
6C
100
AcDbEntity
  8
Spigoli visibili(ISO)
100
AcDb2dPolyline
 66
     1
 10
0.0
 20
0.0
 30
0.0
 70
   128
  0
VERTEX
  5
343
330
342
100
AcDbEntity
  8
Spigoli visibili(ISO)
100
AcDbVertex
100
AcDb2dVertex
 10
492.9467078461189
 20
486.2517062685117
 30
0.0
  0
VERTEX
  5
344
330
342
100
AcDbEntity
  8
Spigoli visibili(ISO)
100
AcDbVertex
100
AcDb2dVertex
 10
492.6192007872353
 20
486.0694790576696
 30
0.0
  0
VERTEX
  5
346
330
342
100
AcDbEntity
  8
Spigoli visibili(ISO)
100
AcDbVertex
100
AcDb2dVertex
 10
492.3025487560227
 20
485.9069311204456
 30
0.0
  0
VERTEX
  5
347
330
342
100
AcDbEntity
  8
Spigoli visibili(ISO)
100
AcDbVertex
100
AcDb2dVertex
 10
491.995397347339
 20
485.7629272073004
 30
0.0
  0
VERTEX
  5
348
330
342
100
AcDbEntity
  8
Spigoli visibili(ISO)
100
AcDbVertex
100
AcDb2dVertex
 10
491.6965352858597
 20
485.6364756758524
 30
0.0
  0
VERTEX
  5
349
330
342
100
AcDbEntity
  8
Spigoli visibili(ISO)
100
AcDbVertex
100
AcDb2dVertex
 10
491.4048176742361
 20
485.5267239224775
 30
0.0
  0
VERTEX
  5
34A
330
342
100
AcDbEntity
  8
Spigoli visibili(ISO)
100
AcDbVertex
100
AcDb2dVertex
 10
491.1192224745434
 20
485.4329451544481
 30
0.0
  0
VERTEX
  5
34B
330
342
100
AcDbEntity
  8
Spigoli visibili(ISO)
100
AcDbVertex
100
AcDb2dVertex
 10
490.8387185120568
 20
485.354566082721
 30
0.0
  0
VERTEX
  5
34C
330
342
100
AcDbEntity
  8
Spigoli visibili(ISO)
100
AcDbVertex
100
AcDb2dVertex
 10
490.5624127936053
 20
485.2910808921014
 30
0.0
  0
VERTEX
  5
34D
330
342
100
AcDbEntity
  8
Spigoli visibili(ISO)
100
AcDbVertex
100
AcDb2dVertex
 10
490.2893816817584
 20
485.2421004414903
 30
0.0
  0
VERTEX
  5
34E
330
342
100
AcDbEntity
  8
Spigoli visibili(ISO)
100
AcDbVertex
100
AcDb2dVertex
 10
490.0188219243787
 20
485.2073233340304
 30
0.0
  0
VERTEX
  5
34F
330
342
100
AcDbEntity
  8
Spigoli visibili(ISO)
100
AcDbVertex
100
AcDb2dVertex
 10
489.7498597028152
 20
485.1865387711004
 30
0.0
  0
VERTEX
  5
350
330
342
100
AcDbEntity
  8
Spigoli visibili(ISO)
100
AcDbVertex
100
AcDb2dVertex
 10
489.4817035170557
 20
485.1796261724526
 30
0.0
  0
VERTEX
  5
351
330
342
100
AcDbEntity
  8
Spigoli visibili(ISO)
100
AcDbVertex
100
AcDb2dVertex
 10
489.2135668153509
 20
485.1865410911486
 30
0.0
  0
VERTEX
  5
352
330
342
100
AcDbEntity
  8
Spigoli visibili(ISO)
100
AcDbVertex
100
AcDb2dVertex
 10
488.9446115127658
 20
485.20732844142
 30
0.0
  0
VERTEX
  5
353
330
342
100
AcDbEntity
  8
Spigoli visibili(ISO)
100
AcDbVertex
100
AcDb2dVertex
 10
488.6740228874231
 20
485.2420985170787
 30
0.0
  0
VERTEX
  5
354
330
342
100
AcDbEntity
  8
Spigoli visibili(ISO)
100
AcDbVertex
100
AcDb2dVertex
 10
488.4010132917004
 20
485.2910840914979
 30
0.0
  0
VERTEX
  5
355
330
342
100
AcDbEntity
  8
Spigoli visibili(ISO)
100
AcDbVertex
100
AcDb2dVertex
 10
488.1247030040035
 20
485.3545717066986
 30
0.0
  0
VERTEX
  5
356
330
342
100
AcDbEntity
  8
Spigoli visibili(ISO)
100
AcDbVertex
100
AcDb2dVertex
 10
487.8442000732722
 20
485.4329538250675
 30
0.0
  0
VERTEX
  5
357
330
342
100
AcDbEntity
  8
Spigoli visibili(ISO)
100
AcDbVertex
100
AcDb2dVertex
 10
487.5585997004489
 20
485.5267193126942
 30
0.0
  0
VERTEX
  5
358
330
342
100
AcDbEntity
  8
Spigoli visibili(ISO)
100
AcDbVertex
100
AcDb2dVertex
 10
487.2668896903735
 20
485.6364691413626
 30
0.0
  0
VERTEX
  5
359
330
342
100
AcDbEntity
  8
Spigoli visibili(ISO)
100
AcDbVertex
100
AcDb2dVertex
 10
486.9680278221588
 20
485.7629304736167
 30
0.0
  0
VERTEX
  5
35A
330
342
100
AcDbEntity
  8
Spigoli visibili(ISO)
100
AcDbVertex
100
AcDb2dVertex
 10
486.6608828936104
 20
485.9069318239654
 30
0.0
  0
VERTEX
  5
35B
330
342
100
AcDbEntity
  8
Spigoli visibili(ISO)
100
AcDbVertex
100
AcDb2dVertex
 10
486.3442200176295
 20
486.0694709125951
 30
0.0
  0
VERTEX
  5
35C
330
342
100
AcDbEntity
  8
Spigoli visibili(ISO)
100
AcDbVertex
100
AcDb2dVertex
 10
486.0167190370066
 20
486.2517039116397
 30
0.0
  0
SEQEND
  5
345
330
342
100
AcDbEntity
  8
Spigoli visibili(ISO)
  0
LINE
  5
35D
330
6C
100
AcDbEntity
  8
Spigoli visibili(ISO)
100
AcDbLine
 10
492.9467107613669
 20
486.251702372092
 30
0.0
 11
492.9467107613669
 21
492.1039593707067
 31
0.0
  0
POLYLINE
  5
35E
330
6C
100
AcDbEntity
  8
Spigoli visibili(ISO)
100
AcDb2dPolyline
 66
     1
 10
0.0
 20
0.0
 30
0.0
 70
   128
  0
VERTEX
  5
35F
330
35E
100
AcDbEntity
  8
Spigoli visibili(ISO)
100
AcDbVertex
100
AcDb2dVertex
 10
492.9467100598075
 20
492.1039575537979
 30
0.0
  0
VERTEX
  5
360
330
35E
100
AcDbEntity
  8
Spigoli visibili(ISO)
100
AcDbVertex
100
AcDb2dVertex
 10
493.6017312736408
 20
492.2861907686694
 30
0.0
  0
VERTEX
  5
362
330
35E
100
AcDbEntity
  8
Spigoli visibili(ISO)
100
AcDbVertex
100
AcDb2dVertex
 10
494.2350585547118
 20
492.4487228597974
 30
0.0
  0
VERTEX
  5
363
330
35E
100
AcDbEntity
  8
Spigoli visibili(ISO)
100
AcDbVertex
100
AcDb2dVertex
 10
494.8493486153478
 20
492.5927286728738
 30
0.0
  0
VERTEX
  5
364
330
35E
100
AcDbEntity
  8
Spigoli visibili(ISO)
100
AcDbVertex
100
AcDb2dVertex
 10
495.4470542268796
 20
492.7191860576482
 30
0.0
  0
VERTEX
  5
365
330
35E
100
AcDbEntity
  8
Spigoli visibili(ISO)
100
AcDbVertex
100
AcDb2dVertex
 10
496.0304856493531
 20
492.8289387733762
 30
0.0
  0
VERTEX
  5
366
330
35E
100
AcDbEntity
  8
Spigoli visibili(ISO)
100
AcDbVertex
100
AcDb2dVertex
 10
496.601697050098
 20
492.9227134278776
 30
0.0
  0
VERTEX
  5
367
330
35E
100
AcDbEntity
  8
Spigoli visibili(ISO)
100
AcDbVertex
100
AcDb2dVertex
 10
497.1626952517964
 20
493.0010963531485
 30
0.0
  0
VERTEX
  5
368
330
35E
100
AcDbEntity
  8
Spigoli visibili(ISO)
100
AcDbVertex
100
AcDb2dVertex
 10
497.7153280066494
 20
493.0645790944118
 30
0.0
  0
VERTEX
  5
369
330
35E
100
AcDbEntity
  8
Spigoli visibili(ISO)
100
AcDbVertex
100
AcDb2dVertex
 10
498.2613417148928
 20
493.1135642155822
 30
0.0
  0
VERTEX
  5
36A
330
35E
100
AcDbEntity
  8
Spigoli visibili(ISO)
100
AcDbVertex
100
AcDb2dVertex
 10
498.8024943876947
 20
493.1483388435451
 30
0.0
  0
VERTEX
  5
36B
330
35E
100
AcDbEntity
  8
Spigoli visibili(ISO)
100
AcDbVertex
100
AcDb2dVertex
 10
499.3404058546687
 20
493.1691226313373
 30
0.0
  0
VERTEX
  5
36C
330
35E
100
AcDbEntity
  8
Spigoli visibili(ISO)
100
AcDbVertex
100
AcDb2dVertex
 10
499.8767087934268
 20
493.1760388282928
 30
0.0
  0
VERTEX
  5
36D
330
35E
100
AcDbEntity
  8
Spigoli visibili(ISO)
100
AcDbVertex
100
AcDb2dVertex
 10
500.4130106629246
 20
493.1691167541751
 30
0.0
  0
VERTEX
  5
36E
330
35E
100
AcDbEntity
  8
Spigoli visibili(ISO)
100
AcDbVertex
100
AcDb2dVertex
 10
500.9509348627806
 20
493.1483369083638
 30
0.0
  0
VERTEX
  5
36F
330
35E
100
AcDbEntity
  8
Spigoli visibili(ISO)
100
AcDbVertex
100
AcDb2dVertex
 10
501.4920777183578
 20
493.1135573106762
 30
0.0
  0
VERTEX
  5
370
330
35E
100
AcDbEntity
  8
Spigoli visibili(ISO)
100
AcDbVertex
100
AcDb2dVertex
 10
502.0381079771317
 20
493.0645739326846
 30
0.0
  0
VERTEX
  5
371
330
35E
100
AcDbEntity
  8
Spigoli visibili(ISO)
100
AcDbVertex
100
AcDb2dVertex
 10
502.5907268864359
 20
493.001094621857
 30
0.0
  0
VERTEX
  5
372
330
35E
100
AcDbEntity
  8
Spigoli visibili(ISO)
100
AcDbVertex
100
AcDb2dVertex
 10
503.1517234378459
 20
492.9227068403681
 30
0.0
  0
VERTEX
  5
373
330
35E
100
AcDbEntity
  8
Spigoli visibili(ISO)
100
AcDbVertex
100
AcDb2dVertex
 10
503.7229406302544
 20
492.8289467558772
 30
0.0
  0
VERTEX
  5
374
330
35E
100
AcDbEntity
  8
Spigoli visibili(ISO)
100
AcDbVertex
100
AcDb2dVertex
 10
504.3063638326467
 20
492.7191883728982
 30
0.0
  0
VERTEX
  5
375
330
35E
100
AcDbEntity
  8
Spigoli visibili(ISO)
100
AcDbVertex
100
AcDb2dVertex
 10
504.9040882842412
 20
492.5927316569048
 30
0.0
  0
VERTEX
  5
376
330
35E
100
AcDbEntity
  8
Spigoli visibili(ISO)
100
AcDbVertex
100
AcDb2dVertex
 10
505.5183718647419
 20
492.4487322064873
 30
0.0
  0
VERTEX
  5
377
330
35E
100
AcDbEntity
  8
Spigoli visibili(ISO)
100
AcDbVertex
100
AcDb2dVertex
 10
506.1516915757868
 20
492.286188025491
 30
0.0
  0
VERTEX
  5
378
330
35E
100
AcDbEntity
  8
Spigoli visibili(ISO)
100
AcDbVertex
100
AcDb2dVertex
 10
506.8067067113595
 20
492.1039610304759
 30
0.0
  0
SEQEND
  5
361
330
35E
100
AcDbEntity
  8
Spigoli visibili(ISO)
  0
POLYLINE
  5
379
330
6C
100
AcDbEntity
  8
Spigoli visibili(ISO)
100
AcDb2dPolyline
 66
     1
 10
0.0
 20
0.0
 30
0.0
 70
   128
  0
VERTEX
  5
37A
330
379
100
AcDbEntity
  8
Spigoli visibili(ISO)
100
AcDbVertex
100
AcDb2dVertex
 10
506.806703879138
 20
486.251700228526
 30
0.0
  0
VERTEX
  5
37B
330
379
100
AcDbEntity
  8
Spigoli visibili(ISO)
100
AcDbVertex
100
AcDb2dVertex
 10
506.1516832838376
 20
486.069476530318
 30
0.0
  0
VERTEX
  5
37D
330
379
100
AcDbEntity
  8
Spigoli visibili(ISO)
100
AcDbVertex
100
AcDb2dVertex
 10
505.518374417561
 20
485.9069336854607
 30
0.0
  0
VERTEX
  5
37E
330
379
100
AcDbEntity
  8
Spigoli visibili(ISO)
100
AcDbVertex
100
AcDb2dVertex
 10
504.904084356925
 20
485.7629278723843
 30
0.0
  0
VERTEX
  5
37F
330
379
100
AcDbEntity
  8
Spigoli visibili(ISO)
100
AcDbVertex
100
AcDb2dVertex
 10
504.3063597120659
 20
485.6364717246757
 30
0.0
  0
VERTEX
  5
380
330
379
100
AcDbEntity
  8
Spigoli visibili(ISO)
100
AcDbVertex
100
AcDb2dVertex
 10
503.7229473229199
 20
485.5267177718817
 30
0.0
  0
VERTEX
  5
381
330
379
100
AcDbEntity
  8
Spigoli visibili(ISO)
100
AcDbVertex
100
AcDb2dVertex
 10
503.1517175073804
 20
485.4329538711099
 30
0.0
  0
VERTEX
  5
382
330
379
100
AcDbEntity
  8
Spigoli visibili(ISO)
100
AcDbVertex
100
AcDb2dVertex
 10
502.5907193056821
 20
485.354570945839
 30
0.0
  0
VERTEX
  5
383
330
379
100
AcDbEntity
  8
Spigoli visibili(ISO)
100
AcDbVertex
100
AcDb2dVertex
 10
502.0381055841563
 20
485.2910869675099
 30
0.0
  0
VERTEX
  5
384
330
379
100
AcDbEntity
  8
Spigoli visibili(ISO)
100
AcDbVertex
100
AcDb2dVertex
 10
501.4920728425856
 20
485.2421030834054
 30
0.0
  0
VERTEX
  5
385
330
379
100
AcDbEntity
  8
Spigoli visibili(ISO)
100
AcDbVertex
100
AcDb2dVertex
 10
500.9509201697837
 20
485.2073284554424
 30
0.0
  0
VERTEX
  5
386
330
379
100
AcDbEntity
  8
Spigoli visibili(ISO)
100
AcDbVertex
100
AcDb2dVertex
 10
500.4130087028097
 20
485.1865446676502
 30
0.0
  0
VERTEX
  5
387
330
379
100
AcDbEntity
  8
Spigoli visibili(ISO)
100
AcDbVertex
100
AcDb2dVertex
 10
499.8767057640516
 20
485.1796284706947
 30
0.0
  0
VERTEX
  5
388
330
379
100
AcDbEntity
  8
Spigoli visibili(ISO)
100
AcDbVertex
100
AcDb2dVertex
 10
499.3404032760208
 20
485.1865410281487
 30
0.0
  0
VERTEX
  5
389
330
379
100
AcDbEntity
  8
Spigoli visibili(ISO)
100
AcDbVertex
100
AcDb2dVertex
 10
498.8024981094923
 20
485.2073196368943
 30
0.0
  0
VERTEX
  5
38A
330
379
100
AcDbEntity
  8
Spigoli visibili(ISO)
100
AcDbVertex
100
AcDb2dVertex
 10
498.2613552539151
 20
485.2420992345819
 30
0.0
  0
VERTEX
  5
38B
330
379
100
AcDbEntity
  8
Spigoli visibili(ISO)
100
AcDbVertex
100
AcDb2dVertex
 10
497.7153249951411
 20
485.2910826125735
 30
0.0
  0
VERTEX
  5
38C
330
379
100
AcDbEntity
  8
Spigoli visibili(ISO)
100
AcDbVertex
100
AcDb2dVertex
 10
497.1626876710425
 20
485.3545726771305
 30
0.0
  0
VERTEX
  5
38D
330
379
100
AcDbEntity
  8
Spigoli visibili(ISO)
100
AcDbVertex
100
AcDb2dVertex
 10
496.601709534427
 20
485.4329497048899
 30
0.0
  0
VERTEX
  5
38E
330
379
100
AcDbEntity
  8
Spigoli visibili(ISO)
100
AcDbVertex
100
AcDb2dVertex
 10
496.030473927224
 20
485.5267205431103
 30
0.0
  0
VERTEX
  5
38F
330
379
100
AcDbEntity
  8
Spigoli visibili(ISO)
100
AcDbVertex
100
AcDb2dVertex
 10
495.4470697581591
 20
485.6364776890235
 30
0.0
  0
VERTEX
  5
390
330
379
100
AcDbEntity
  8
Spigoli visibili(ISO)
100
AcDbVertex
100
AcDb2dVertex
 10
494.8493453065646
 20
485.7629344050168
 30
0.0
  0
VERTEX
  5
391
330
379
100
AcDbEntity
  8
Spigoli visibili(ISO)
100
AcDbVertex
100
AcDb2dVertex
 10
494.2350426927366
 20
485.9069350925002
 30
0.0
  0
VERTEX
  5
392
330
379
100
AcDbEntity
  8
Spigoli visibili(ISO)
100
AcDbVertex
100
AcDb2dVertex
 10
493.601742015019
 20
486.0694780364307
 30
0.0
  0
VERTEX
  5
393
330
379
100
AcDbEntity
  8
Spigoli visibili(ISO)
100
AcDbVertex
100
AcDb2dVertex
 10
492.9467078461189
 20
486.2517062685117
 30
0.0
  0
SEQEND
  5
37C
330
379
100
AcDbEntity
  8
Spigoli visibili(ISO)
  0
LINE
  5
394
330
6C
100
AcDbEntity
  8
Spigoli visibili(ISO)
100
AcDbLine
 10
506.8067107613671
 20
492.1039593707067
 30
0.0
 11
506.8067107613671
 21
486.251702372092
 31
0.0
  0
POLYLINE
  5
395
330
6C
100
AcDbEntity
  8
Spigoli visibili(ISO)
100
AcDb2dPolyline
 66
     1
 10
0.0
 20
0.0
 30
0.0
 70
   128
  0
VERTEX
  5
396
330
395
100
AcDbEntity
  8
Spigoli visibili(ISO)
100
AcDbVertex
100
AcDb2dVertex
 10
506.8067067113595
 20
492.1039610304759
 30
0.0
  0
VERTEX
  5
397
330
395
100
AcDbEntity
  8
Spigoli visibili(ISO)
100
AcDbVertex
100
AcDb2dVertex
 10
507.1342137702431
 20
492.286188241318
 30
0.0
  0
VERTEX
  5
399
330
395
100
AcDbEntity
  8
Spigoli visibili(ISO)
100
AcDbVertex
100
AcDb2dVertex
 10
507.4508842162501
 20
492.4487254248124
 30
0.0
  0
VERTEX
  5
39A
330
395
100
AcDbEntity
  8
Spigoli visibili(ISO)
100
AcDbVertex
100
AcDb2dVertex
 10
507.7580165916065
 20
492.5927305750234
 30
0.0
  0
VERTEX
  5
39B
330
395
100
AcDbEntity
  8
Spigoli visibili(ISO)
100
AcDbVertex
100
AcDb2dVertex
 10
508.0568792716187
 20
492.7191916231351
 30
0.0
  0
VERTEX
  5
39C
330
395
100
AcDbEntity
  8
Spigoli visibili(ISO)
100
AcDbVertex
100
AcDb2dVertex
 10
508.3485968832424
 20
492.8289433765099
 30
0.0
  0
VERTEX
  5
39D
330
395
100
AcDbEntity
  8
Spigoli visibili(ISO)
100
AcDbVertex
100
AcDb2dVertex
 10
508.6342104977295
 20
492.9227113908098
 30
0.0
  0
VERTEX
  5
39E
330
395
100
AcDbEntity
  8
Spigoli visibili(ISO)
100
AcDbVertex
100
AcDb2dVertex
 10
508.9146954268888
 20
493.0010916996028
 30
0.0
  0
VERTEX
  5
39F
330
395
100
AcDbEntity
  8
Spigoli visibili(ISO)
100
AcDbVertex
100
AcDb2dVertex
 10
509.1910201786675
 20
493.0645756531567
 30
0.0
  0
VERTEX
  5
3A0
330
395
100
AcDbEntity
  8
Spigoli visibili(ISO)
100
AcDbVertex
100
AcDb2dVertex
 10
509.4640322571871
 20
493.1135573408335
 30
0.0
  0
VERTEX
  5
3A1
330
395
100
AcDbEntity
  8
Spigoli visibili(ISO)
100
AcDbVertex
100
AcDb2dVertex
 10
509.7346110478942
 20
493.1483332112276
 30
0.0
  0
VERTEX
  5
3A2
330
395
100
AcDbEntity
  8
Spigoli visibili(ISO)
100
AcDbVertex
100
AcDb2dVertex
 10
510.0035542361303
 20
493.1691190112235
 30
0.0
  0
VERTEX
  5
3A3
330
395
100
AcDbEntity
  8
Spigoli visibili(ISO)
100
AcDbVertex
100
AcDb2dVertex
 10
510.2717104218899
 20
493.1760316098712
 30
0.0
  0
VERTEX
  5
3A4
330
395
100
AcDbEntity
  8
Spigoli visibili(ISO)
100
AcDbVertex
100
AcDb2dVertex
 10
510.5398661569219
 20
493.1691154541095
 30
0.0
  0
VERTEX
  5
3A5
330
395
100
AcDbEntity
  8
Spigoli visibili(ISO)
100
AcDbVertex
100
AcDb2dVertex
 10
510.8088220780399
 20
493.1483376205017
 30
0.0
  0
VERTEX
  5
3A6
330
395
100
AcDbEntity
  8
Spigoli visibili(ISO)
100
AcDbVertex
100
AcDb2dVertex
 10
511.0793910515225
 20
493.1135592652452
 30
0.0
  0
VERTEX
  5
3A7
330
395
100
AcDbEntity
  8
Spigoli visibili(ISO)
100
AcDbVertex
100
AcDb2dVertex
 10
511.3524006472451
 20
493.0645736908259
 30
0.0
  0
VERTEX
  5
3A8
330
395
100
AcDbEntity
  8
Spigoli visibili(ISO)
100
AcDbVertex
100
AcDb2dVertex
 10
511.6287115534751
 20
493.0010955922889
 30
0.0
  0
VERTEX
  5
3A9
330
395
100
AcDbEntity
  8
Spigoli visibili(ISO)
100
AcDbVertex
100
AcDb2dVertex
 10
511.9092144842062
 20
492.9227134739199
 30
0.0
  0
VERTEX
  5
3AA
330
395
100
AcDbEntity
  8
Spigoli visibili(ISO)
100
AcDbVertex
100
AcDb2dVertex
 10
512.1948338903568
 20
492.8289467492276
 30
0.0
  0
VERTEX
  5
3AB
330
395
100
AcDbEntity
  8
Spigoli visibili(ISO)
100
AcDbVertex
100
AcDb2dVertex
 10
512.4865432818994
 20
492.7191874038953
 30
0.0
  0
VERTEX
  5
3AC
330
395
100
AcDbEntity
  8
Spigoli visibili(ISO)
100
AcDbVertex
100
AcDb2dVertex
 10
512.7853867353196
 20
492.5927368253708
 30
0.0
  0
VERTEX
  5
3AD
330
395
100
AcDbEntity
  8
Spigoli visibili(ISO)
100
AcDbVertex
100
AcDb2dVertex
 10
513.0925500786624
 20
492.4487247212926
 30
0.0
  0
VERTEX
  5
3AE
330
395
100
AcDbEntity
  8
Spigoli visibili(ISO)
100
AcDbVertex
100
AcDb2dVertex
 10
513.409193921316
 20
492.2861868697288
 30
0.0
  0
VERTEX
  5
3AF
330
395
100
AcDbEntity
  8
Spigoli visibili(ISO)
100
AcDbVertex
100
AcDb2dVertex
 10
513.7367145537994
 20
492.103962150282
 30
0.0
  0
SEQEND
  5
398
330
395
100
AcDbEntity
  8
Spigoli visibili(ISO)
  0
POLYLINE
  5
3B0
330
6C
100
AcDbEntity
  8
Spigoli visibili(ISO)
100
AcDb2dPolyline
 66
     1
 10
0.0
 20
0.0
 30
0.0
 70
   128
  0
VERTEX
  5
3B1
330
3B0
100
AcDbEntity
  8
Spigoli visibili(ISO)
100
AcDbVertex
100
AcDb2dVertex
 10
513.7367117215778
 20
486.251701348332
 30
0.0
  0
VERTEX
  5
3B2
330
3B0
100
AcDbEntity
  8
Spigoli visibili(ISO)
100
AcDbVertex
100
AcDb2dVertex
 10
513.4092046626943
 20
486.0694741374899
 30
0.0
  0
VERTEX
  5
3B4
330
3B0
100
AcDbEntity
  8
Spigoli visibili(ISO)
100
AcDbVertex
100
AcDb2dVertex
 10
513.0925342166872
 20
485.9069369539954
 30
0.0
  0
VERTEX
  5
3B5
330
3B0
100
AcDbEntity
  8
Spigoli visibili(ISO)
100
AcDbVertex
100
AcDb2dVertex
 10
512.7854018413308
 20
485.7629318037845
 30
0.0
  0
VERTEX
  5
3B6
330
3B0
100
AcDbEntity
  8
Spigoli visibili(ISO)
100
AcDbVertex
100
AcDb2dVertex
 10
512.4865391613186
 20
485.6364707556727
 30
0.0
  0
VERTEX
  5
3B7
330
3B0
100
AcDbEntity
  8
Spigoli visibili(ISO)
100
AcDbVertex
100
AcDb2dVertex
 10
512.1948215496948
 20
485.526719002298
 30
0.0
  0
VERTEX
  5
3B8
330
3B0
100
AcDbEntity
  8
Spigoli visibili(ISO)
100
AcDbVertex
100
AcDb2dVertex
 10
511.9092079352078
 20
485.432950987998
 30
0.0
  0
VERTEX
  5
3B9
330
3B0
100
AcDbEntity
  8
Spigoli visibili(ISO)
100
AcDbVertex
100
AcDb2dVertex
 10
511.6287230060486
 20
485.354570679205
 30
0.0
  0
VERTEX
  5
3BA
330
3B0
100
AcDbEntity
  8
Spigoli visibili(ISO)
100
AcDbVertex
100
AcDb2dVertex
 10
511.3523982542698
 20
485.2910867256513
 30
0.0
  0
VERTEX
  5
3BB
330
3B0
100
AcDbEntity
  8
Spigoli visibili(ISO)
100
AcDbVertex
100
AcDb2dVertex
 10
511.0793861757502
 20
485.2421050379745
 30
0.0
  0
VERTEX
  5
3BC
330
3B0
100
AcDbEntity
  8
Spigoli visibili(ISO)
100
AcDbVertex
100
AcDb2dVertex
 10
510.8088264183704
 20
485.2073279305145
 30
0.0
  0
VERTEX
  5
3BD
330
3B0
100
AcDbEntity
  8
Spigoli visibili(ISO)
100
AcDbVertex
100
AcDb2dVertex
 10
510.539864196807
 20
485.1865433675846
 30
0.0
  0
VERTEX
  5
3BE
330
3B0
100
AcDbEntity
  8
Spigoli visibili(ISO)
100
AcDbVertex
100
AcDb2dVertex
 10
510.2717080110474
 20
485.1796307689368
 30
0.0
  0
VERTEX
  5
3BF
330
3B0
100
AcDbEntity
  8
Spigoli visibili(ISO)
100
AcDbVertex
100
AcDb2dVertex
 10
510.0035516574825
 20
485.1865374080348
 30
0.0
  0
VERTEX
  5
3C0
330
3B0
100
AcDbEntity
  8
Spigoli visibili(ISO)
100
AcDbVertex
100
AcDb2dVertex
 10
509.7345963548974
 20
485.2073247583063
 30
0.0
  0
VERTEX
  5
3C1
330
3B0
100
AcDbEntity
  8
Spigoli visibili(ISO)
100
AcDbVertex
100
AcDb2dVertex
 10
509.4640273814149
 20
485.2421031135627
 30
0.0
  0
VERTEX
  5
3C2
330
3B0
100
AcDbEntity
  8
Spigoli visibili(ISO)
100
AcDbVertex
100
AcDb2dVertex
 10
509.1910171671592
 20
485.2910791713183
 30
0.0
  0
VERTEX
  5
3C3
330
3B0
100
AcDbEntity
  8
Spigoli visibili(ISO)
100
AcDbVertex
100
AcDb2dVertex
 10
508.9147068794622
 20
485.354566786519
 30
0.0
  0
VERTEX
  5
3C4
330
3B0
100
AcDbEntity
  8
Spigoli visibili(ISO)
100
AcDbVertex
100
AcDb2dVertex
 10
508.6342039487312
 20
485.4329489048881
 30
0.0
  0
VERTEX
  5
3C5
330
3B0
100
AcDbEntity
  8
Spigoli visibili(ISO)
100
AcDbVertex
100
AcDb2dVertex
 10
508.3486035759078
 20
485.5267143925146
 30
0.0
  0
VERTEX
  5
3C6
330
3B0
100
AcDbEntity
  8
Spigoli visibili(ISO)
100
AcDbVertex
100
AcDb2dVertex
 10
508.0568941843653
 20
485.6364737378467
 30
0.0
  0
VERTEX
  5
3C7
330
3B0
100
AcDbEntity
  8
Spigoli visibili(ISO)
100
AcDbVertex
100
AcDb2dVertex
 10
507.7580316976177
 20
485.7629255534371
 30
0.0
  0
VERTEX
  5
3C8
330
3B0
100
AcDbEntity
  8
Spigoli visibili(ISO)
100
AcDbVertex
100
AcDb2dVertex
 10
507.4508873876022
 20
485.9069364204495
 30
0.0
  0
VERTEX
  5
3C9
330
3B0
100
AcDbEntity
  8
Spigoli visibili(ISO)
100
AcDbVertex
100
AcDb2dVertex
 10
507.1342245116212
 20
486.0694755090792
 30
0.0
  0
VERTEX
  5
3CA
330
3B0
100
AcDbEntity
  8
Spigoli visibili(ISO)
100
AcDbVertex
100
AcDb2dVertex
 10
506.806703879138
 20
486.251700228526
 30
0.0
  0
SEQEND
  5
3B3
330
3B0
100
AcDbEntity
  8
Spigoli visibili(ISO)
  0
LINE
  5
3CB
330
6C
100
AcDbEntity
  8
Spigoli visibili(ISO)
100
AcDbLine
 10
513.736710761367
 20
492.1039593707065
 30
0.0
 11
513.736710761367
 21
486.251702372092
 31
0.0
  0
LINE
  5
3CC
330
6C
100
AcDbEntity
  8
Spigoli visibili(ISO)
100
AcDbLine
 10
487.8767107613669
 20
485.1778308713994
 30
0.0
 11
486.016710761367
 21
486.251702372092
 31
0.0
  0
LINE
  5
3CD
330
6C
100
AcDbEntity
  8
Spigoli visibili(ISO)
100
AcDbLine
 10
511.876710761367
 20
485.1778308713994
 30
0.0
 11
513.736710761367
 21
486.251702372092
 31
0.0
  0
LINE
  5
3CE
330
6C
100
AcDbEntity
  8
Spigoli visibili(ISO)
100
AcDbLine
 10
511.876710761367
 20
493.1778308713993
 30
0.0
 11
513.7367107613669
 21
492.1039593707065
 31
0.0
  0
LINE
  5
3CF
330
6C
100
AcDbEntity
  8
Spigoli visibili(ISO)
100
AcDbLine
 10
487.8767107613669
 20
493.1778308713993
 30
0.0
 11
486.0167107613669
 21
492.1039593707065
 31
0.0
  0
LINE
  5
3D0
330
6C
100
AcDbEntity
  8
Spigoli visibili(ISO)
100
AcDbLine
 10
486.0167107613671
 20
504.1039593707065
 30
0.0
 11
486.0167107613671
 21
498.2517023720919
 31
0.0
  0
POLYLINE
  5
3D1
330
6C
100
AcDbEntity
  8
Spigoli visibili(ISO)
100
AcDb2dPolyline
 66
     1
 10
0.0
 20
0.0
 30
0.0
 70
   128
  0
VERTEX
  5
3D2
330
3D1
100
AcDbEntity
  8
Spigoli visibili(ISO)
100
AcDbVertex
100
AcDb2dVertex
 10
486.0167022173678
 20
504.1039564339917
 30
0.0
  0
VERTEX
  5
3D3
330
3D1
100
AcDbEntity
  8
Spigoli visibili(ISO)
100
AcDbVertex
100
AcDb2dVertex
 10
486.3442283095787
 20
504.286182407768
 30
0.0
  0
VERTEX
  5
3D5
330
3D1
100
AcDbEntity
  8
Spigoli visibili(ISO)
100
AcDbVertex
100
AcDb2dVertex
 10
486.6608803407913
 20
504.4487303449919
 30
0.0
  0
VERTEX
  5
3D6
330
3D1
100
AcDbEntity
  8
Spigoli visibili(ISO)
100
AcDbVertex
100
AcDb2dVertex
 10
486.968031749475
 20
504.5927342581371
 30
0.0
  0
VERTEX
  5
3D7
330
3D1
100
AcDbEntity
  8
Spigoli visibili(ISO)
100
AcDbVertex
100
AcDb2dVertex
 10
487.2668938109542
 20
504.7191857895851
 30
0.0
  0
VERTEX
  5
3D8
330
3D1
100
AcDbEntity
  8
Spigoli visibili(ISO)
100
AcDbVertex
100
AcDb2dVertex
 10
487.5585923892507
 20
504.8289387800259
 30
0.0
  0
VERTEX
  5
3D9
330
3D1
100
AcDbEntity
  8
Spigoli visibili(ISO)
100
AcDbVertex
100
AcDb2dVertex
 10
487.8442060037378
 20
504.9227067943257
 30
0.0
  0
VERTEX
  5
3DA
330
3D1
100
AcDbEntity
  8
Spigoli visibili(ISO)
100
AcDbVertex
100
AcDb2dVertex
 10
488.1247105847574
 20
505.0010953827166
 30
0.0
  0
VERTEX
  5
3DB
330
3D1
100
AcDbEntity
  8
Spigoli visibili(ISO)
100
AcDbVertex
100
AcDb2dVertex
 10
488.4010163032087
 20
505.0645805733361
 30
0.0
  0
VERTEX
  5
3DC
330
3D1
100
AcDbEntity
  8
Spigoli visibili(ISO)
100
AcDbVertex
100
AcDb2dVertex
 10
488.6740283817283
 20
505.113562261013
 30
0.0
  0
VERTEX
  5
3DD
330
3D1
100
AcDbEntity
  8
Spigoli visibili(ISO)
100
AcDbVertex
100
AcDb2dVertex
 10
488.9446071724353
 20
505.1483381314071
 30
0.0
  0
VERTEX
  5
3DE
330
3D1
100
AcDbEntity
  8
Spigoli visibili(ISO)
100
AcDbVertex
100
AcDb2dVertex
 10
489.2135503606716
 20
505.1691239314028
 30
0.0
  0
VERTEX
  5
3DF
330
3D1
100
AcDbEntity
  8
Spigoli visibili(ISO)
100
AcDbVertex
100
AcDb2dVertex
 10
489.481706546431
 20
505.1760365300506
 30
0.0
  0
VERTEX
  5
3E0
330
3D1
100
AcDbEntity
  8
Spigoli visibili(ISO)
100
AcDbVertex
100
AcDb2dVertex
 10
489.7498622814631
 20
505.1691203742889
 30
0.0
  0
VERTEX
  5
3E1
330
3D1
100
AcDbEntity
  8
Spigoli visibili(ISO)
100
AcDbVertex
100
AcDb2dVertex
 10
490.0188175840481
 20
505.1483330240175
 30
0.0
  0
VERTEX
  5
3E2
330
3D1
100
AcDbEntity
  8
Spigoli visibili(ISO)
100
AcDbVertex
100
AcDb2dVertex
 10
490.2893871760636
 20
505.1135641854247
 30
0.0
  0
VERTEX
  5
3E3
330
3D1
100
AcDbEntity
  8
Spigoli visibili(ISO)
100
AcDbVertex
100
AcDb2dVertex
 10
490.5624158051136
 20
505.0645773739396
 30
0.0
  0
VERTEX
  5
3E4
330
3D1
100
AcDbEntity
  8
Spigoli visibili(ISO)
100
AcDbVertex
100
AcDb2dVertex
 10
490.8387260928106
 20
505.0010897587389
 30
0.0
  0
VERTEX
  5
3E5
330
3D1
100
AcDbEntity
  8
Spigoli visibili(ISO)
100
AcDbVertex
100
AcDb2dVertex
 10
491.1192099902145
 20
504.9227088774357
 30
0.0
  0
VERTEX
  5
3E6
330
3D1
100
AcDbEntity
  8
Spigoli visibili(ISO)
100
AcDbVertex
100
AcDb2dVertex
 10
491.4048293963651
 20
504.8289421527433
 30
0.0
  0
VERTEX
  5
3E7
330
3D1
100
AcDbEntity
  8
Spigoli visibili(ISO)
100
AcDbVertex
100
AcDb2dVertex
 10
491.6965394064406
 20
504.7191923240748
 30
0.0
  0
VERTEX
  5
3E8
330
3D1
100
AcDbEntity
  8
Spigoli visibili(ISO)
100
AcDbVertex
100
AcDb2dVertex
 10
491.9954012746552
 20
504.5927309918209
 30
0.0
  0
VERTEX
  5
3E9
330
3D1
100
AcDbEntity
  8
Spigoli visibili(ISO)
100
AcDbVertex
100
AcDb2dVertex
 10
492.3025462032035
 20
504.4487296414721
 30
0.0
  0
VERTEX
  5
3EA
330
3D1
100
AcDbEntity
  8
Spigoli visibili(ISO)
100
AcDbVertex
100
AcDb2dVertex
 10
492.6191900458571
 20
504.2861917899082
 30
0.0
  0
VERTEX
  5
3EB
330
3D1
100
AcDbEntity
  8
Spigoli visibili(ISO)
100
AcDbVertex
100
AcDb2dVertex
 10
492.9467100598075
 20
504.1039575537978
 30
0.0
  0
SEQEND
  5
3D4
330
3D1
100
AcDbEntity
  8
Spigoli visibili(ISO)
  0
POLYLINE
  5
3EC
330
6C
100
AcDbEntity
  8
Spigoli visibili(ISO)
100
AcDb2dPolyline
 66
     1
 10
0.0
 20
0.0
 30
0.0
 70
   128
  0
VERTEX
  5
3ED
330
3EC
100
AcDbEntity
  8
Spigoli visibili(ISO)
100
AcDbVertex
100
AcDb2dVertex
 10
492.9467078461189
 20
498.2517062685115
 30
0.0
  0
VERTEX
  5
3EE
330
3EC
100
AcDbEntity
  8
Spigoli visibili(ISO)
100
AcDbVertex
100
AcDb2dVertex
 10
492.6192007872353
 20
498.0694790576694
 30
0.0
  0
VERTEX
  5
3F0
330
3EC
100
AcDbEntity
  8
Spigoli visibili(ISO)
100
AcDbVertex
100
AcDb2dVertex
 10
492.3025487560227
 20
497.9069311204455
 30
0.0
  0
VERTEX
  5
3F1
330
3EC
100
AcDbEntity
  8
Spigoli visibili(ISO)
100
AcDbVertex
100
AcDb2dVertex
 10
491.995397347339
 20
497.7629272073003
 30
0.0
  0
VERTEX
  5
3F2
330
3EC
100
AcDbEntity
  8
Spigoli visibili(ISO)
100
AcDbVertex
100
AcDb2dVertex
 10
491.6965352858597
 20
497.6364756758522
 30
0.0
  0
VERTEX
  5
3F3
330
3EC
100
AcDbEntity
  8
Spigoli visibili(ISO)
100
AcDbVertex
100
AcDb2dVertex
 10
491.4048176742361
 20
497.5267239224774
 30
0.0
  0
VERTEX
  5
3F4
330
3EC
100
AcDbEntity
  8
Spigoli visibili(ISO)
100
AcDbVertex
100
AcDb2dVertex
 10
491.1192224745434
 20
497.432945154448
 30
0.0
  0
VERTEX
  5
3F5
330
3EC
100
AcDbEntity
  8
Spigoli visibili(ISO)
100
AcDbVertex
100
AcDb2dVertex
 10
490.8387185120568
 20
497.3545660827209
 30
0.0
  0
VERTEX
  5
3F6
330
3EC
100
AcDbEntity
  8
Spigoli visibili(ISO)
100
AcDbVertex
100
AcDb2dVertex
 10
490.5624127936053
 20
497.2910808921012
 30
0.0
  0
VERTEX
  5
3F7
330
3EC
100
AcDbEntity
  8
Spigoli visibili(ISO)
100
AcDbVertex
100
AcDb2dVertex
 10
490.2893816817584
 20
497.2421004414902
 30
0.0
  0
VERTEX
  5
3F8
330
3EC
100
AcDbEntity
  8
Spigoli visibili(ISO)
100
AcDbVertex
100
AcDb2dVertex
 10
490.0188219243787
 20
497.2073233340303
 30
0.0
  0
VERTEX
  5
3F9
330
3EC
100
AcDbEntity
  8
Spigoli visibili(ISO)
100
AcDbVertex
100
AcDb2dVertex
 10
489.7498597028152
 20
497.1865387711003
 30
0.0
  0
VERTEX
  5
3FA
330
3EC
100
AcDbEntity
  8
Spigoli visibili(ISO)
100
AcDbVertex
100
AcDb2dVertex
 10
489.4817035170557
 20
497.1796261724525
 30
0.0
  0
VERTEX
  5
3FB
330
3EC
100
AcDbEntity
  8
Spigoli visibili(ISO)
100
AcDbVertex
100
AcDb2dVertex
 10
489.2135668153509
 20
497.1865410911485
 30
0.0
  0
VERTEX
  5
3FC
330
3EC
100
AcDbEntity
  8
Spigoli visibili(ISO)
100
AcDbVertex
100
AcDb2dVertex
 10
488.9446115127658
 20
497.2073284414199
 30
0.0
  0
VERTEX
  5
3FD
330
3EC
100
AcDbEntity
  8
Spigoli visibili(ISO)
100
AcDbVertex
100
AcDb2dVertex
 10
488.6740228874231
 20
497.2420985170785
 30
0.0
  0
VERTEX
  5
3FE
330
3EC
100
AcDbEntity
  8
Spigoli visibili(ISO)
100
AcDbVertex
100
AcDb2dVertex
 10
488.4010132917004
 20
497.2910840914978
 30
0.0
  0
VERTEX
  5
3FF
330
3EC
100
AcDbEntity
  8
Spigoli visibili(ISO)
100
AcDbVertex
100
AcDb2dVertex
 10
488.1247030040035
 20
497.3545717066985
 30
0.0
  0
VERTEX
  5
400
330
3EC
100
AcDbEntity
  8
Spigoli visibili(ISO)
100
AcDbVertex
100
AcDb2dVertex
 10
487.8442000732722
 20
497.4329538250675
 30
0.0
  0
VERTEX
  5
401
330
3EC
100
AcDbEntity
  8
Spigoli visibili(ISO)
100
AcDbVertex
100
AcDb2dVertex
 10
487.5585997004489
 20
497.5267193126941
 30
0.0
  0
VERTEX
  5
402
330
3EC
100
AcDbEntity
  8
Spigoli visibili(ISO)
100
AcDbVertex
100
AcDb2dVertex
 10
487.2668896903735
 20
497.6364691413626
 30
0.0
  0
VERTEX
  5
403
330
3EC
100
AcDbEntity
  8
Spigoli visibili(ISO)
100
AcDbVertex
100
AcDb2dVertex
 10
486.9680278221588
 20
497.7629304736166
 30
0.0
  0
VERTEX
  5
404
330
3EC
100
AcDbEntity
  8
Spigoli visibili(ISO)
100
AcDbVertex
100
AcDb2dVertex
 10
486.6608828936104
 20
497.9069318239653
 30
0.0
  0
VERTEX
  5
405
330
3EC
100
AcDbEntity
  8
Spigoli visibili(ISO)
100
AcDbVertex
100
AcDb2dVertex
 10
486.3442200176295
 20
498.069470912595
 30
0.0
  0
VERTEX
  5
406
330
3EC
100
AcDbEntity
  8
Spigoli visibili(ISO)
100
AcDbVertex
100
AcDb2dVertex
 10
486.0167190370066
 20
498.2517039116396
 30
0.0
  0
SEQEND
  5
3EF
330
3EC
100
AcDbEntity
  8
Spigoli visibili(ISO)
  0
LINE
  5
407
330
6C
100
AcDbEntity
  8
Spigoli visibili(ISO)
100
AcDbLine
 10
492.9467107613669
 20
498.2517023720919
 30
0.0
 11
492.9467107613669
 21
504.1039593707065
 31
0.0
  0
POLYLINE
  5
408
330
6C
100
AcDbEntity
  8
Spigoli visibili(ISO)
100
AcDb2dPolyline
 66
     1
 10
0.0
 20
0.0
 30
0.0
 70
   128
  0
VERTEX
  5
409
330
408
100
AcDbEntity
  8
Spigoli visibili(ISO)
100
AcDbVertex
100
AcDb2dVertex
 10
492.9467100598075
 20
504.1039575537978
 30
0.0
  0
VERTEX
  5
40A
330
408
100
AcDbEntity
  8
Spigoli visibili(ISO)
100
AcDbVertex
100
AcDb2dVertex
 10
493.6017312736408
 20
504.2861907686694
 30
0.0
  0
VERTEX
  5
40C
330
408
100
AcDbEntity
  8
Spigoli visibili(ISO)
100
AcDbVertex
100
AcDb2dVertex
 10
494.2350585547118
 20
504.4487228597972
 30
0.0
  0
VERTEX
  5
40D
330
408
100
AcDbEntity
  8
Spigoli visibili(ISO)
100
AcDbVertex
100
AcDb2dVertex
 10
494.8493486153478
 20
504.5927286728737
 30
0.0
  0
VERTEX
  5
40E
330
408
100
AcDbEntity
  8
Spigoli visibili(ISO)
100
AcDbVertex
100
AcDb2dVertex
 10
495.4470542268796
 20
504.7191860576481
 30
0.0
  0
VERTEX
  5
40F
330
408
100
AcDbEntity
  8
Spigoli visibili(ISO)
100
AcDbVertex
100
AcDb2dVertex
 10
496.0304856493531
 20
504.8289387733762
 30
0.0
  0
VERTEX
  5
410
330
408
100
AcDbEntity
  8
Spigoli visibili(ISO)
100
AcDbVertex
100
AcDb2dVertex
 10
496.601697050098
 20
504.9227134278774
 30
0.0
  0
VERTEX
  5
411
330
408
100
AcDbEntity
  8
Spigoli visibili(ISO)
100
AcDbVertex
100
AcDb2dVertex
 10
497.1626952517964
 20
505.0010963531485
 30
0.0
  0
VERTEX
  5
412
330
408
100
AcDbEntity
  8
Spigoli visibili(ISO)
100
AcDbVertex
100
AcDb2dVertex
 10
497.7153280066494
 20
505.0645790944116
 30
0.0
  0
VERTEX
  5
413
330
408
100
AcDbEntity
  8
Spigoli visibili(ISO)
100
AcDbVertex
100
AcDb2dVertex
 10
498.2613417148928
 20
505.1135642155821
 30
0.0
  0
VERTEX
  5
414
330
408
100
AcDbEntity
  8
Spigoli visibili(ISO)
100
AcDbVertex
100
AcDb2dVertex
 10
498.8024943876947
 20
505.148338843545
 30
0.0
  0
VERTEX
  5
415
330
408
100
AcDbEntity
  8
Spigoli visibili(ISO)
100
AcDbVertex
100
AcDb2dVertex
 10
499.3404058546687
 20
505.1691226313372
 30
0.0
  0
VERTEX
  5
416
330
408
100
AcDbEntity
  8
Spigoli visibili(ISO)
100
AcDbVertex
100
AcDb2dVertex
 10
499.8767087934268
 20
505.1760388282927
 30
0.0
  0
VERTEX
  5
417
330
408
100
AcDbEntity
  8
Spigoli visibili(ISO)
100
AcDbVertex
100
AcDb2dVertex
 10
500.4130106629246
 20
505.1691167541751
 30
0.0
  0
VERTEX
  5
418
330
408
100
AcDbEntity
  8
Spigoli visibili(ISO)
100
AcDbVertex
100
AcDb2dVertex
 10
500.9509348627806
 20
505.1483369083637
 30
0.0
  0
VERTEX
  5
419
330
408
100
AcDbEntity
  8
Spigoli visibili(ISO)
100
AcDbVertex
100
AcDb2dVertex
 10
501.4920777183578
 20
505.1135573106761
 30
0.0
  0
VERTEX
  5
41A
330
408
100
AcDbEntity
  8
Spigoli visibili(ISO)
100
AcDbVertex
100
AcDb2dVertex
 10
502.0381079771317
 20
505.0645739326845
 30
0.0
  0
VERTEX
  5
41B
330
408
100
AcDbEntity
  8
Spigoli visibili(ISO)
100
AcDbVertex
100
AcDb2dVertex
 10
502.5907268864359
 20
505.0010946218569
 30
0.0
  0
VERTEX
  5
41C
330
408
100
AcDbEntity
  8
Spigoli visibili(ISO)
100
AcDbVertex
100
AcDb2dVertex
 10
503.1517234378459
 20
504.922706840368
 30
0.0
  0
VERTEX
  5
41D
330
408
100
AcDbEntity
  8
Spigoli visibili(ISO)
100
AcDbVertex
100
AcDb2dVertex
 10
503.7229406302544
 20
504.828946755877
 30
0.0
  0
VERTEX
  5
41E
330
408
100
AcDbEntity
  8
Spigoli visibili(ISO)
100
AcDbVertex
100
AcDb2dVertex
 10
504.3063638326467
 20
504.7191883728981
 30
0.0
  0
VERTEX
  5
41F
330
408
100
AcDbEntity
  8
Spigoli visibili(ISO)
100
AcDbVertex
100
AcDb2dVertex
 10
504.9040882842412
 20
504.5927316569048
 30
0.0
  0
VERTEX
  5
420
330
408
100
AcDbEntity
  8
Spigoli visibili(ISO)
100
AcDbVertex
100
AcDb2dVertex
 10
505.5183718647419
 20
504.4487322064871
 30
0.0
  0
VERTEX
  5
421
330
408
100
AcDbEntity
  8
Spigoli visibili(ISO)
100
AcDbVertex
100
AcDb2dVertex
 10
506.1516915757868
 20
504.2861880254909
 30
0.0
  0
VERTEX
  5
422
330
408
100
AcDbEntity
  8
Spigoli visibili(ISO)
100
AcDbVertex
100
AcDb2dVertex
 10
506.8067067113595
 20
504.1039610304758
 30
0.0
  0
SEQEND
  5
40B
330
408
100
AcDbEntity
  8
Spigoli visibili(ISO)
  0
POLYLINE
  5
423
330
6C
100
AcDbEntity
  8
Spigoli visibili(ISO)
100
AcDb2dPolyline
 66
     1
 10
0.0
 20
0.0
 30
0.0
 70
   128
  0
VERTEX
  5
424
330
423
100
AcDbEntity
  8
Spigoli visibili(ISO)
100
AcDbVertex
100
AcDb2dVertex
 10
506.806703879138
 20
498.2517002285259
 30
0.0
  0
VERTEX
  5
425
330
423
100
AcDbEntity
  8
Spigoli visibili(ISO)
100
AcDbVertex
100
AcDb2dVertex
 10
506.1516832838376
 20
498.0694765303178
 30
0.0
  0
VERTEX
  5
427
330
423
100
AcDbEntity
  8
Spigoli visibili(ISO)
100
AcDbVertex
100
AcDb2dVertex
 10
505.518374417561
 20
497.9069336854605
 30
0.0
  0
VERTEX
  5
428
330
423
100
AcDbEntity
  8
Spigoli visibili(ISO)
100
AcDbVertex
100
AcDb2dVertex
 10
504.904084356925
 20
497.7629278723841
 30
0.0
  0
VERTEX
  5
429
330
423
100
AcDbEntity
  8
Spigoli visibili(ISO)
100
AcDbVertex
100
AcDb2dVertex
 10
504.3063597120659
 20
497.6364717246755
 30
0.0
  0
VERTEX
  5
42A
330
423
100
AcDbEntity
  8
Spigoli visibili(ISO)
100
AcDbVertex
100
AcDb2dVertex
 10
503.7229473229199
 20
497.5267177718817
 30
0.0
  0
VERTEX
  5
42B
330
423
100
AcDbEntity
  8
Spigoli visibili(ISO)
100
AcDbVertex
100
AcDb2dVertex
 10
503.1517175073804
 20
497.4329538711097
 30
0.0
  0
VERTEX
  5
42C
330
423
100
AcDbEntity
  8
Spigoli visibili(ISO)
100
AcDbVertex
100
AcDb2dVertex
 10
502.5907193056821
 20
497.3545709458388
 30
0.0
  0
VERTEX
  5
42D
330
423
100
AcDbEntity
  8
Spigoli visibili(ISO)
100
AcDbVertex
100
AcDb2dVertex
 10
502.0381055841563
 20
497.2910869675098
 30
0.0
  0
VERTEX
  5
42E
330
423
100
AcDbEntity
  8
Spigoli visibili(ISO)
100
AcDbVertex
100
AcDb2dVertex
 10
501.4920728425856
 20
497.2421030834052
 30
0.0
  0
VERTEX
  5
42F
330
423
100
AcDbEntity
  8
Spigoli visibili(ISO)
100
AcDbVertex
100
AcDb2dVertex
 10
500.9509201697837
 20
497.2073284554422
 30
0.0
  0
VERTEX
  5
430
330
423
100
AcDbEntity
  8
Spigoli visibili(ISO)
100
AcDbVertex
100
AcDb2dVertex
 10
500.4130087028097
 20
497.1865446676502
 30
0.0
  0
VERTEX
  5
431
330
423
100
AcDbEntity
  8
Spigoli visibili(ISO)
100
AcDbVertex
100
AcDb2dVertex
 10
499.8767057640516
 20
497.1796284706946
 30
0.0
  0
VERTEX
  5
432
330
423
100
AcDbEntity
  8
Spigoli visibili(ISO)
100
AcDbVertex
100
AcDb2dVertex
 10
499.3404032760208
 20
497.1865410281485
 30
0.0
  0
VERTEX
  5
433
330
423
100
AcDbEntity
  8
Spigoli visibili(ISO)
100
AcDbVertex
100
AcDb2dVertex
 10
498.8024981094923
 20
497.2073196368941
 30
0.0
  0
VERTEX
  5
434
330
423
100
AcDbEntity
  8
Spigoli visibili(ISO)
100
AcDbVertex
100
AcDb2dVertex
 10
498.2613552539151
 20
497.2420992345818
 30
0.0
  0
VERTEX
  5
435
330
423
100
AcDbEntity
  8
Spigoli visibili(ISO)
100
AcDbVertex
100
AcDb2dVertex
 10
497.7153249951411
 20
497.2910826125733
 30
0.0
  0
VERTEX
  5
436
330
423
100
AcDbEntity
  8
Spigoli visibili(ISO)
100
AcDbVertex
100
AcDb2dVertex
 10
497.1626876710425
 20
497.3545726771305
 30
0.0
  0
VERTEX
  5
437
330
423
100
AcDbEntity
  8
Spigoli visibili(ISO)
100
AcDbVertex
100
AcDb2dVertex
 10
496.601709534427
 20
497.4329497048898
 30
0.0
  0
VERTEX
  5
438
330
423
100
AcDbEntity
  8
Spigoli visibili(ISO)
100
AcDbVertex
100
AcDb2dVertex
 10
496.030473927224
 20
497.5267205431102
 30
0.0
  0
VERTEX
  5
439
330
423
100
AcDbEntity
  8
Spigoli visibili(ISO)
100
AcDbVertex
100
AcDb2dVertex
 10
495.4470697581591
 20
497.6364776890234
 30
0.0
  0
VERTEX
  5
43A
330
423
100
AcDbEntity
  8
Spigoli visibili(ISO)
100
AcDbVertex
100
AcDb2dVertex
 10
494.8493453065646
 20
497.7629344050167
 30
0.0
  0
VERTEX
  5
43B
330
423
100
AcDbEntity
  8
Spigoli visibili(ISO)
100
AcDbVertex
100
AcDb2dVertex
 10
494.2350426927366
 20
497.9069350925001
 30
0.0
  0
VERTEX
  5
43C
330
423
100
AcDbEntity
  8
Spigoli visibili(ISO)
100
AcDbVertex
100
AcDb2dVertex
 10
493.601742015019
 20
498.0694780364306
 30
0.0
  0
VERTEX
  5
43D
330
423
100
AcDbEntity
  8
Spigoli visibili(ISO)
100
AcDbVertex
100
AcDb2dVertex
 10
492.9467078461189
 20
498.2517062685115
 30
0.0
  0
SEQEND
  5
426
330
423
100
AcDbEntity
  8
Spigoli visibili(ISO)
  0
LINE
  5
43E
330
6C
100
AcDbEntity
  8
Spigoli visibili(ISO)
100
AcDbLine
 10
506.8067107613671
 20
504.1039593707066
 30
0.0
 11
506.8067107613671
 21
498.2517023720919
 31
0.0
  0
POLYLINE
  5
43F
330
6C
100
AcDbEntity
  8
Spigoli visibili(ISO)
100
AcDb2dPolyline
 66
     1
 10
0.0
 20
0.0
 30
0.0
 70
   128
  0
VERTEX
  5
440
330
43F
100
AcDbEntity
  8
Spigoli visibili(ISO)
100
AcDbVertex
100
AcDb2dVertex
 10
506.8067067113595
 20
504.1039610304758
 30
0.0
  0
VERTEX
  5
441
330
43F
100
AcDbEntity
  8
Spigoli visibili(ISO)
100
AcDbVertex
100
AcDb2dVertex
 10
507.1342137702431
 20
504.2861882413178
 30
0.0
  0
VERTEX
  5
443
330
43F
100
AcDbEntity
  8
Spigoli visibili(ISO)
100
AcDbVertex
100
AcDb2dVertex
 10
507.4508842162501
 20
504.4487254248123
 30
0.0
  0
VERTEX
  5
444
330
43F
100
AcDbEntity
  8
Spigoli visibili(ISO)
100
AcDbVertex
100
AcDb2dVertex
 10
507.7580165916065
 20
504.5927305750233
 30
0.0
  0
VERTEX
  5
445
330
43F
100
AcDbEntity
  8
Spigoli visibili(ISO)
100
AcDbVertex
100
AcDb2dVertex
 10
508.0568792716187
 20
504.719191623135
 30
0.0
  0
VERTEX
  5
446
330
43F
100
AcDbEntity
  8
Spigoli visibili(ISO)
100
AcDbVertex
100
AcDb2dVertex
 10
508.3485968832424
 20
504.8289433765098
 30
0.0
  0
VERTEX
  5
447
330
43F
100
AcDbEntity
  8
Spigoli visibili(ISO)
100
AcDbVertex
100
AcDb2dVertex
 10
508.6342104977295
 20
504.9227113908098
 30
0.0
  0
VERTEX
  5
448
330
43F
100
AcDbEntity
  8
Spigoli visibili(ISO)
100
AcDbVertex
100
AcDb2dVertex
 10
508.9146954268888
 20
505.0010916996027
 30
0.0
  0
VERTEX
  5
449
330
43F
100
AcDbEntity
  8
Spigoli visibili(ISO)
100
AcDbVertex
100
AcDb2dVertex
 10
509.1910201786675
 20
505.0645756531565
 30
0.0
  0
VERTEX
  5
44A
330
43F
100
AcDbEntity
  8
Spigoli visibili(ISO)
100
AcDbVertex
100
AcDb2dVertex
 10
509.4640322571871
 20
505.1135573408333
 30
0.0
  0
VERTEX
  5
44B
330
43F
100
AcDbEntity
  8
Spigoli visibili(ISO)
100
AcDbVertex
100
AcDb2dVertex
 10
509.7346110478942
 20
505.1483332112275
 30
0.0
  0
VERTEX
  5
44C
330
43F
100
AcDbEntity
  8
Spigoli visibili(ISO)
100
AcDbVertex
100
AcDb2dVertex
 10
510.0035542361303
 20
505.1691190112233
 30
0.0
  0
VERTEX
  5
44D
330
43F
100
AcDbEntity
  8
Spigoli visibili(ISO)
100
AcDbVertex
100
AcDb2dVertex
 10
510.2717104218899
 20
505.176031609871
 30
0.0
  0
VERTEX
  5
44E
330
43F
100
AcDbEntity
  8
Spigoli visibili(ISO)
100
AcDbVertex
100
AcDb2dVertex
 10
510.5398661569219
 20
505.1691154541093
 30
0.0
  0
VERTEX
  5
44F
330
43F
100
AcDbEntity
  8
Spigoli visibili(ISO)
100
AcDbVertex
100
AcDb2dVertex
 10
510.8088220780399
 20
505.1483376205015
 30
0.0
  0
VERTEX
  5
450
330
43F
100
AcDbEntity
  8
Spigoli visibili(ISO)
100
AcDbVertex
100
AcDb2dVertex
 10
511.0793910515225
 20
505.1135592652451
 30
0.0
  0
VERTEX
  5
451
330
43F
100
AcDbEntity
  8
Spigoli visibili(ISO)
100
AcDbVertex
100
AcDb2dVertex
 10
511.3524006472451
 20
505.0645736908258
 30
0.0
  0
VERTEX
  5
452
330
43F
100
AcDbEntity
  8
Spigoli visibili(ISO)
100
AcDbVertex
100
AcDb2dVertex
 10
511.6287115534751
 20
505.0010955922888
 30
0.0
  0
VERTEX
  5
453
330
43F
100
AcDbEntity
  8
Spigoli visibili(ISO)
100
AcDbVertex
100
AcDb2dVertex
 10
511.9092144842062
 20
504.9227134739197
 30
0.0
  0
VERTEX
  5
454
330
43F
100
AcDbEntity
  8
Spigoli visibili(ISO)
100
AcDbVertex
100
AcDb2dVertex
 10
512.1948338903568
 20
504.8289467492274
 30
0.0
  0
VERTEX
  5
455
330
43F
100
AcDbEntity
  8
Spigoli visibili(ISO)
100
AcDbVertex
100
AcDb2dVertex
 10
512.4865432818994
 20
504.7191874038952
 30
0.0
  0
VERTEX
  5
456
330
43F
100
AcDbEntity
  8
Spigoli visibili(ISO)
100
AcDbVertex
100
AcDb2dVertex
 10
512.7853867353196
 20
504.5927368253707
 30
0.0
  0
VERTEX
  5
457
330
43F
100
AcDbEntity
  8
Spigoli visibili(ISO)
100
AcDbVertex
100
AcDb2dVertex
 10
513.0925500786624
 20
504.4487247212925
 30
0.0
  0
VERTEX
  5
458
330
43F
100
AcDbEntity
  8
Spigoli visibili(ISO)
100
AcDbVertex
100
AcDb2dVertex
 10
513.409193921316
 20
504.2861868697286
 30
0.0
  0
VERTEX
  5
459
330
43F
100
AcDbEntity
  8
Spigoli visibili(ISO)
100
AcDbVertex
100
AcDb2dVertex
 10
513.7367145537994
 20
504.1039621502818
 30
0.0
  0
SEQEND
  5
442
330
43F
100
AcDbEntity
  8
Spigoli visibili(ISO)
  0
POLYLINE
  5
45A
330
6C
100
AcDbEntity
  8
Spigoli visibili(ISO)
100
AcDb2dPolyline
 66
     1
 10
0.0
 20
0.0
 30
0.0
 70
   128
  0
VERTEX
  5
45B
330
45A
100
AcDbEntity
  8
Spigoli visibili(ISO)
100
AcDbVertex
100
AcDb2dVertex
 10
513.7367117215778
 20
498.2517013483319
 30
0.0
  0
VERTEX
  5
45C
330
45A
100
AcDbEntity
  8
Spigoli visibili(ISO)
100
AcDbVertex
100
AcDb2dVertex
 10
513.4092046626943
 20
498.0694741374898
 30
0.0
  0
VERTEX
  5
45E
330
45A
100
AcDbEntity
  8
Spigoli visibili(ISO)
100
AcDbVertex
100
AcDb2dVertex
 10
513.0925342166872
 20
497.9069369539954
 30
0.0
  0
VERTEX
  5
45F
330
45A
100
AcDbEntity
  8
Spigoli visibili(ISO)
100
AcDbVertex
100
AcDb2dVertex
 10
512.7854018413308
 20
497.7629318037844
 30
0.0
  0
VERTEX
  5
460
330
45A
100
AcDbEntity
  8
Spigoli visibili(ISO)
100
AcDbVertex
100
AcDb2dVertex
 10
512.4865391613186
 20
497.6364707556727
 30
0.0
  0
VERTEX
  5
461
330
45A
100
AcDbEntity
  8
Spigoli visibili(ISO)
100
AcDbVertex
100
AcDb2dVertex
 10
512.1948215496948
 20
497.5267190022978
 30
0.0
  0
VERTEX
  5
462
330
45A
100
AcDbEntity
  8
Spigoli visibili(ISO)
100
AcDbVertex
100
AcDb2dVertex
 10
511.9092079352078
 20
497.4329509879979
 30
0.0
  0
VERTEX
  5
463
330
45A
100
AcDbEntity
  8
Spigoli visibili(ISO)
100
AcDbVertex
100
AcDb2dVertex
 10
511.6287230060486
 20
497.3545706792049
 30
0.0
  0
VERTEX
  5
464
330
45A
100
AcDbEntity
  8
Spigoli visibili(ISO)
100
AcDbVertex
100
AcDb2dVertex
 10
511.3523982542698
 20
497.2910867256512
 30
0.0
  0
VERTEX
  5
465
330
45A
100
AcDbEntity
  8
Spigoli visibili(ISO)
100
AcDbVertex
100
AcDb2dVertex
 10
511.0793861757502
 20
497.2421050379743
 30
0.0
  0
VERTEX
  5
466
330
45A
100
AcDbEntity
  8
Spigoli visibili(ISO)
100
AcDbVertex
100
AcDb2dVertex
 10
510.8088264183704
 20
497.2073279305144
 30
0.0
  0
VERTEX
  5
467
330
45A
100
AcDbEntity
  8
Spigoli visibili(ISO)
100
AcDbVertex
100
AcDb2dVertex
 10
510.539864196807
 20
497.1865433675844
 30
0.0
  0
VERTEX
  5
468
330
45A
100
AcDbEntity
  8
Spigoli visibili(ISO)
100
AcDbVertex
100
AcDb2dVertex
 10
510.2717080110474
 20
497.1796307689366
 30
0.0
  0
VERTEX
  5
469
330
45A
100
AcDbEntity
  8
Spigoli visibili(ISO)
100
AcDbVertex
100
AcDb2dVertex
 10
510.0035516574825
 20
497.1865374080346
 30
0.0
  0
VERTEX
  5
46A
330
45A
100
AcDbEntity
  8
Spigoli visibili(ISO)
100
AcDbVertex
100
AcDb2dVertex
 10
509.7345963548974
 20
497.2073247583061
 30
0.0
  0
VERTEX
  5
46B
330
45A
100
AcDbEntity
  8
Spigoli visibili(ISO)
100
AcDbVertex
100
AcDb2dVertex
 10
509.4640273814149
 20
497.2421031135626
 30
0.0
  0
VERTEX
  5
46C
330
45A
100
AcDbEntity
  8
Spigoli visibili(ISO)
100
AcDbVertex
100
AcDb2dVertex
 10
509.1910171671592
 20
497.2910791713181
 30
0.0
  0
VERTEX
  5
46D
330
45A
100
AcDbEntity
  8
Spigoli visibili(ISO)
100
AcDbVertex
100
AcDb2dVertex
 10
508.9147068794622
 20
497.3545667865189
 30
0.0
  0
VERTEX
  5
46E
330
45A
100
AcDbEntity
  8
Spigoli visibili(ISO)
100
AcDbVertex
100
AcDb2dVertex
 10
508.6342039487312
 20
497.432948904888
 30
0.0
  0
VERTEX
  5
46F
330
45A
100
AcDbEntity
  8
Spigoli visibili(ISO)
100
AcDbVertex
100
AcDb2dVertex
 10
508.3486035759078
 20
497.5267143925145
 30
0.0
  0
VERTEX
  5
470
330
45A
100
AcDbEntity
  8
Spigoli visibili(ISO)
100
AcDbVertex
100
AcDb2dVertex
 10
508.0568941843653
 20
497.6364737378466
 30
0.0
  0
VERTEX
  5
471
330
45A
100
AcDbEntity
  8
Spigoli visibili(ISO)
100
AcDbVertex
100
AcDb2dVertex
 10
507.7580316976177
 20
497.7629255534369
 30
0.0
  0
VERTEX
  5
472
330
45A
100
AcDbEntity
  8
Spigoli visibili(ISO)
100
AcDbVertex
100
AcDb2dVertex
 10
507.4508873876022
 20
497.9069364204494
 30
0.0
  0
VERTEX
  5
473
330
45A
100
AcDbEntity
  8
Spigoli visibili(ISO)
100
AcDbVertex
100
AcDb2dVertex
 10
507.1342245116212
 20
498.0694755090791
 30
0.0
  0
VERTEX
  5
474
330
45A
100
AcDbEntity
  8
Spigoli visibili(ISO)
100
AcDbVertex
100
AcDb2dVertex
 10
506.806703879138
 20
498.2517002285259
 30
0.0
  0
SEQEND
  5
45D
330
45A
100
AcDbEntity
  8
Spigoli visibili(ISO)
  0
LINE
  5
475
330
6C
100
AcDbEntity
  8
Spigoli visibili(ISO)
100
AcDbLine
 10
513.736710761367
 20
504.1039593707064
 30
0.0
 11
513.736710761367
 21
498.2517023720919
 31
0.0
  0
LINE
  5
476
330
6C
100
AcDbEntity
  8
Spigoli visibili(ISO)
100
AcDbLine
 10
511.876710761367
 20
505.1778308713992
 30
0.0
 11
487.8767107613671
 21
505.1778308713992
 31
0.0
  0
LINE
  5
477
330
6C
100
AcDbEntity
  8
Spigoli visibili(ISO)
100
AcDbLine
 10
487.8767107613669
 20
497.1778308713992
 30
0.0
 11
486.016710761367
 21
498.2517023720919
 31
0.0
  0
LINE
  5
478
330
6C
100
AcDbEntity
  8
Spigoli visibili(ISO)
100
AcDbLine
 10
511.876710761367
 20
497.1778308713992
 30
0.0
 11
513.736710761367
 21
498.2517023720919
 31
0.0
  0
LINE
  5
479
330
6C
100
AcDbEntity
  8
Spigoli visibili(ISO)
100
AcDbLine
 10
511.876710761367
 20
505.1778308713992
 30
0.0
 11
513.7367107613669
 21
504.1039593707064
 31
0.0
  0
LINE
  5
47A
330
6C
100
AcDbEntity
  8
Spigoli visibili(ISO)
100
AcDbLine
 10
487.8767107613669
 20
505.1778308713991
 30
0.0
 11
486.0167107613669
 21
504.1039593707065
 31
0.0
  0
LINE
  5
47B
330
6C
100
AcDbEntity
  8
Spigoli visibili(ISO)
100
AcDbLine
 10
675.876710761367
 20
518.6778308713993
 30
0.0
 11
659.8767107613671
 21
518.6778308713993
 31
0.0
  0
LINE
  5
47C
330
6C
100
AcDbEntity
  8
Spigoli visibili(ISO)
100
AcDbLine
 10
660.876710761367
 20
519.6778308713994
 30
0.0
 11
674.8767107613671
 21
519.6778308713994
 31
0.0
  0
LINE
  5
47D
330
6C
100
AcDbEntity
  8
Spigoli visibili(ISO)
100
AcDbLine
 10
674.8767107613669
 20
519.6778308713994
 30
0.0
 11
675.876710761367
 21
518.6778308713993
 31
0.0
  0
LINE
  5
47E
330
6C
100
AcDbEntity
  8
Spigoli visibili(ISO)
100
AcDbLine
 10
660.876710761367
 20
519.6778308713994
 30
0.0
 11
659.8767107613668
 21
518.6778308713993
 31
0.0
  0
LINE
  5
47F
330
6C
100
AcDbEntity
  8
Spigoli visibili(ISO)
100
AcDbLine
 10
659.8767107613668
 20
505.1778308713993
 30
0.0
 11
659.8767107613668
 21
518.6778308713993
 31
0.0
  0
LINE
  5
480
330
6C
100
AcDbEntity
  8
Spigoli visibili(ISO)
100
AcDbLine
 10
675.876710761367
 20
505.1778308713993
 30
0.0
 11
675.876710761367
 21
518.6778308713993
 31
0.0
  0
LINE
  5
481
330
6C
100
AcDbEntity
  8
Spigoli visibili(ISO)
100
AcDbLine
 10
507.876710761367
 20
518.6778308713995
 30
0.0
 11
491.8767107613671
 21
518.6778308713995
 31
0.0
  0
LINE
  5
482
330
6C
100
AcDbEntity
  8
Spigoli visibili(ISO)
100
AcDbLine
 10
492.876710761367
 20
519.6778308713994
 30
0.0
 11
506.8767107613671
 21
519.6778308713994
 31
0.0
  0
LINE
  5
483
330
6C
100
AcDbEntity
  8
Spigoli visibili(ISO)
100
AcDbLine
 10
506.8767107613671
 20
519.6778308713994
 30
0.0
 11
507.876710761367
 21
518.6778308713993
 31
0.0
  0
LINE
  5
484
330
6C
100
AcDbEntity
  8
Spigoli visibili(ISO)
100
AcDbLine
 10
492.8767107613671
 20
519.6778308713994
 30
0.0
 11
491.8767107613671
 21
518.6778308713995
 31
0.0
  0
LINE
  5
485
330
6C
100
AcDbEntity
  8
Spigoli visibili(ISO)
100
AcDbLine
 10
491.8767107613671
 20
505.1778308713991
 30
0.0
 11
491.8767107613671
 21
518.6778308713993
 31
0.0
  0
LINE
  5
486
330
6C
100
AcDbEntity
  8
Spigoli visibili(ISO)
100
AcDbLine
 10
507.876710761367
 20
505.1778308713991
 30
0.0
 11
507.876710761367
 21
518.6778308713993
 31
0.0
  0
LINE
  5
487
330
6C
100
AcDbEntity
  8
Spigoli visibili(ISO)
100
AcDbLine
 10
687.126710761367
 20
424.1778308713993
 30
0.0
 11
648.6267107613671
 21
424.1778308713993
 31
0.0
  0
LINE
  5
488
330
6C
100
AcDbEntity
  8
Spigoli visibili(ISO)
100
AcDbLine
 10
686.1267107613671
 20
423.1778308713993
 30
0.0
 11
649.626710761367
 21
423.1778308713993
 31
0.0
  0
LINE
  5
489
330
6C
100
AcDbEntity
  8
Spigoli visibili(ISO)
100
AcDbLine
 10
655.876710761367
 20
478.4778308713994
 30
0.0
 11
648.6267107613671
 21
478.4778308713994
 31
0.0
  0
LINE
  5
48A
330
6C
100
AcDbEntity
  8
Spigoli visibili(ISO)
100
AcDbLine
 10
655.876710761367
 20
479.4778308713993
 30
0.0
 11
649.626710761367
 21
479.4778308713993
 31
0.0
  0
LINE
  5
48B
330
6C
100
AcDbEntity
  8
Spigoli visibili(ISO)
100
AcDbLine
 10
649.626710761367
 20
423.1778308713993
 30
0.0
 11
648.6267107613671
 21
424.1778308713993
 31
0.0
  0
LINE
  5
48C
330
6C
100
AcDbEntity
  8
Spigoli visibili(ISO)
100
AcDbLine
 10
686.1267107613671
 20
423.1778308713993
 30
0.0
 11
687.126710761367
 21
424.1778308713993
 31
0.0
  0
LINE
  5
48D
330
6C
100
AcDbEntity
  8
Spigoli visibili(ISO)
100
AcDbLine
 10
648.6267107613671
 20
424.1778308713993
 30
0.0
 11
648.6267107613671
 21
478.4778308713994
 31
0.0
  0
LINE
  5
48E
330
6C
100
AcDbEntity
  8
Spigoli visibili(ISO)
100
AcDbLine
 10
687.126710761367
 20
424.1778308713993
 30
0.0
 11
687.126710761367
 21
427.6778308713994
 31
0.0
  0
LINE
  5
48F
330
6C
100
AcDbEntity
  8
Spigoli visibili(ISO)
100
AcDbLine
 10
649.626710761367
 20
479.4778308713993
 30
0.0
 11
648.6267107613671
 21
478.4778308713994
 31
0.0
  0
LINE
  5
490
330
6C
100
AcDbEntity
  8
Spigoli visibili(ISO)
100
AcDbLine
 10
519.1267107613669
 20
424.1778308713993
 30
0.0
 11
480.626710761367
 21
424.1778308713993
 31
0.0
  0
LINE
  5
491
330
6C
100
AcDbEntity
  8
Spigoli visibili(ISO)
100
AcDbLine
 10
518.126710761367
 20
423.1778308713993
 30
0.0
 11
481.6267107613669
 21
423.1778308713993
 31
0.0
  0
LINE
  5
492
330
6C
100
AcDbEntity
  8
Spigoli visibili(ISO)
100
AcDbLine
 10
519.1267107613671
 20
478.4778308713994
 30
0.0
 11
511.876710761367
 21
478.4778308713994
 31
0.0
  0
LINE
  5
493
330
6C
100
AcDbEntity
  8
Spigoli visibili(ISO)
100
AcDbLine
 10
518.126710761367
 20
479.4778308713993
 30
0.0
 11
511.876710761367
 21
479.4778308713993
 31
0.0
  0
LINE
  5
494
330
6C
100
AcDbEntity
  8
Spigoli visibili(ISO)
100
AcDbLine
 10
481.6267107613669
 20
423.1778308713993
 30
0.0
 11
480.626710761367
 21
424.1778308713993
 31
0.0
  0
LINE
  5
495
330
6C
100
AcDbEntity
  8
Spigoli visibili(ISO)
100
AcDbLine
 10
518.126710761367
 20
423.1778308713993
 30
0.0
 11
519.1267107613669
 21
424.1778308713993
 31
0.0
  0
LINE
  5
496
330
6C
100
AcDbEntity
  8
Spigoli visibili(ISO)
100
AcDbLine
 10
480.626710761367
 20
424.1778308713993
 30
0.0
 11
480.626710761367
 21
427.6778308713994
 31
0.0
  0
LINE
  5
497
330
6C
100
AcDbEntity
  8
Spigoli visibili(ISO)
100
AcDbLine
 10
519.1267107613669
 20
424.1778308713993
 30
0.0
 11
519.1267107613669
 21
478.4778308713994
 31
0.0
  0
LINE
  5
498
330
6C
100
AcDbEntity
  8
Spigoli visibili(ISO)
100
AcDbLine
 10
518.126710761367
 20
479.4778308713993
 30
0.0
 11
519.1267107613669
 21
478.4778308713994
 31
0.0
  0
ARC
  5
499
330
6C
100
AcDbEntity
  8
Spigoli visibili(ISO)
100
AcDbCircle
 10
293.5890312947908
 20
437.1778308713993
 30
0.0
 40
6.25
100
AcDbArc
 50
180.0
 51
0.0
  0
LINE
  5
49A
330
6C
100
AcDbEntity
  8
Spigoli visibili(ISO)
100
AcDbLine
 10
299.8390312947908
 20
447.1778308713993
 30
0.0
 11
299.8390312947908
 21
437.1778308713993
 31
0.0
  0
LINE
  5
49B
330
6C
100
AcDbEntity
  8
Spigoli visibili(ISO)
100
AcDbLine
 10
287.3390312947908
 20
437.1778308713993
 30
0.0
 11
287.3390312947908
 21
447.1778308713988
 31
0.0
  0
LINE
  5
49C
330
6C
100
AcDbEntity
  8
Spigoli visibili(ISO)
100
AcDbLine
 10
137.3390312947908
 20
437.1778308713993
 30
0.0
 11
137.3390312947908
 21
447.1778308713994
 31
0.0
  0
ARC
  5
49D
330
6C
100
AcDbEntity
  8
Spigoli visibili(ISO)
100
AcDbCircle
 10
143.5890312947908
 20
437.1778308713993
 30
0.0
 40
6.25
100
AcDbArc
 50
180.0
 51
0.0
  0
LINE
  5
49E
330
6C
100
AcDbEntity
  8
Spigoli visibili(ISO)
100
AcDbLine
 10
149.8390312947908
 20
447.1778308713993
 30
0.0
 11
149.8390312947908
 21
437.1778308713993
 31
0.0
  0
ARC
  5
49F
330
6C
100
AcDbEntity
  8
Spigoli visibili(ISO)
100
AcDbCircle
 10
143.5890312947908
 20
447.1778308713993
 30
0.0
 40
6.25
100
AcDbArc
 50
0.0
 51
180.0
  0
CIRCLE
  5
4A0
330
6C
100
AcDbEntity
  8
Spigoli visibili(ISO)
100
AcDbCircle
 10
333.5890312947908
 20
372.1778308713993
 30
0.0
 40
6.25
  0
ARC
  5
4A1
330
6C
100
AcDbEntity
  8
Spigoli visibili(ISO)
100
AcDbCircle
 10
293.5890312947908
 20
447.1778308713993
 30
0.0
 40
6.25
100
AcDbArc
 50
0.0
 51
180.0
  0
CIRCLE
  5
4A2
330
6C
100
AcDbEntity
  8
Spigoli visibili(ISO)
100
AcDbCircle
 10
103.5890312947908
 20
372.1778308713993
 30
0.0
 40
6.25
  0
ARC
  5
4A3
330
6C
100
AcDbEntity
  8
Spigoli visibili(ISO)
100
AcDbCircle
 10
363.5890312947908
 20
352.1778308713994
 30
0.0
 40
5.000000000000017
100
AcDbArc
 50
270.0000000000008
 51
0.0
  0
ARC
  5
4A4
330
6C
100
AcDbEntity
  8
Spigoli visibili(ISO)
100
AcDbCircle
 10
73.58903129479083
 20
352.1778308713994
 30
0.0
 40
5.000000000000017
100
AcDbArc
 50
180.0
 51
269.9999999999998
  0
LINE
  5
4A5
330
6C
100
AcDbEntity
  8
Spigoli visibili(ISO)
100
AcDbLine
 10
368.5890312947908
 20
352.1778308713994
 30
0.0
 11
368.5890312947908
 21
489.1778308713993
 31
0.0
  0
LINE
  5
4A6
330
6C
100
AcDbEntity
  8
Spigoli visibili(ISO)
100
AcDbLine
 10
68.58903129479083
 20
489.1778308713993
 30
0.0
 11
68.58903129479081
 21
352.1778308713994
 31
0.0
  0
LINE
  5
4A7
330
6C
100
AcDbEntity
  8
Spigoli visibili(ISO)
100
AcDbLine
 10
73.58903129479081
 20
347.1778308713993
 30
0.0
 11
363.5890312947908
 21
347.1778308713993
 31
0.0
  0
LINE
  5
4A8
330
6C
100
AcDbEntity
  8
Spigoli visibili(ISO)
100
AcDbLine
 10
68.58903129478846
 20
497.1778308713993
 30
0.0
 11
368.5890312947885
 21
497.1778308713993
 31
0.0
  0
LINE
  5
4A9
330
6C
100
AcDbEntity
  8
Spigoli visibili(ISO)
100
AcDbLine
 10
68.58903129478846
 20
497.1778308713992
 30
0.0
 11
68.58903129479083
 21
489.1778308713993
 31
0.0
  0
LINE
  5
4AA
330
6C
100
AcDbEntity
  8
Spigoli visibili(ISO)
100
AcDbLine
 10
368.5890312947885
 20
497.1778308713992
 30
0.0
 11
368.5890312947908
 21
489.1778308713993
 31
0.0
  0
POLYLINE
  5
4AB
330
6C
100
AcDbEntity
  8
Spigoli visibili(ISO)
100
AcDb2dPolyline
 66
     1
 10
0.0
 20
0.0
 30
0.0
 70
   128
  0
VERTEX
  5
4AC
330
4AB
100
AcDbEntity
  8
Spigoli visibili(ISO)
100
AcDbVertex
100
AcDb2dVertex
 10
321.5859194554893
 20
504.1039575537978
 30
0.0
  0
VERTEX
  5
4AD
330
4AB
100
AcDbEntity
  8
Spigoli visibili(ISO)
100
AcDbVertex
100
AcDb2dVertex
 10
322.1531875886528
 20
504.2861917899083
 30
0.0
  0
VERTEX
  5
4AF
330
4AB
100
AcDbEntity
  8
Spigoli visibili(ISO)
100
AcDbVertex
100
AcDb2dVertex
 10
322.7016540326684
 20
504.4487296414721
 30
0.0
  0
VERTEX
  5
4B0
330
4AB
100
AcDbEntity
  8
Spigoli visibili(ISO)
100
AcDbVertex
100
AcDb2dVertex
 10
323.2336445607752
 20
504.5927309918209
 30
0.0
  0
VERTEX
  5
4B1
330
4AB
100
AcDbEntity
  8
Spigoli visibili(ISO)
100
AcDbVertex
100
AcDb2dVertex
 10
323.7512876548381
 20
504.7191923240748
 30
0.0
  0
VERTEX
  5
4B2
330
4AB
100
AcDbEntity
  8
Spigoli visibili(ISO)
100
AcDbVertex
100
AcDb2dVertex
 10
324.2565437116237
 20
504.8289421527434
 30
0.0
  0
VERTEX
  5
4B3
330
4AB
100
AcDbEntity
  8
Spigoli visibili(ISO)
100
AcDbVertex
100
AcDb2dVertex
 10
324.7512354411694
 20
504.9227088774357
 30
0.0
  0
VERTEX
  5
4B4
330
4AB
100
AcDbEntity
  8
Spigoli visibili(ISO)
100
AcDbVertex
100
AcDb2dVertex
 10
325.2370681323622
 20
505.0010897587389
 30
0.0
  0
VERTEX
  5
4B5
330
4AB
100
AcDbEntity
  8
Spigoli visibili(ISO)
100
AcDbVertex
100
AcDb2dVertex
 10
325.715655282936
 20
505.0645773739396
 30
0.0
  0
VERTEX
  5
4B6
330
4AB
100
AcDbEntity
  8
Spigoli visibili(ISO)
100
AcDbVertex
100
AcDb2dVertex
 10
326.1885317124939
 20
505.1135641854247
 30
0.0
  0
VERTEX
  5
4B7
330
4AB
100
AcDbEntity
  8
Spigoli visibili(ISO)
100
AcDbVertex
100
AcDb2dVertex
 10
326.6571762122727
 20
505.1483330240175
 30
0.0
  0
VERTEX
  5
4B8
330
4AB
100
AcDbEntity
  8
Spigoli visibili(ISO)
100
AcDbVertex
100
AcDb2dVertex
 10
327.1230216779328
 20
505.169120374289
 30
0.0
  0
VERTEX
  5
4B9
330
4AB
100
AcDbEntity
  8
Spigoli visibili(ISO)
100
AcDbVertex
100
AcDb2dVertex
 10
327.5874753751375
 20
505.1760365300506
 30
0.0
  0
VERTEX
  5
4BA
330
4AB
100
AcDbEntity
  8
Spigoli visibili(ISO)
100
AcDbVertex
100
AcDb2dVertex
 10
328.0519290723422
 20
505.1691239314029
 30
0.0
  0
VERTEX
  5
4BB
330
4AB
100
AcDbEntity
  8
Spigoli visibili(ISO)
100
AcDbVertex
100
AcDb2dVertex
 10
328.5177745380023
 20
505.1483381314072
 30
0.0
  0
VERTEX
  5
4BC
330
4AB
100
AcDbEntity
  8
Spigoli visibili(ISO)
100
AcDbVertex
100
AcDb2dVertex
 10
328.9864187397579
 20
505.113562261013
 30
0.0
  0
VERTEX
  5
4BD
330
4AB
100
AcDbEntity
  8
Spigoli visibili(ISO)
100
AcDbVertex
100
AcDb2dVertex
 10
329.4592954673391
 20
505.0645805733362
 30
0.0
  0
VERTEX
  5
4BE
330
4AB
100
AcDbEntity
  8
Spigoli visibili(ISO)
100
AcDbVertex
100
AcDb2dVertex
 10
329.9378823198896
 20
505.0010953827166
 30
0.0
  0
VERTEX
  5
4BF
330
4AB
100
AcDbEntity
  8
Spigoli visibili(ISO)
100
AcDbVertex
100
AcDb2dVertex
 10
330.4237153091055
 20
504.9227067943258
 30
0.0
  0
VERTEX
  5
4C0
330
4AB
100
AcDbEntity
  8
Spigoli visibili(ISO)
100
AcDbVertex
100
AcDb2dVertex
 10
330.9184064426048
 20
504.8289387800259
 30
0.0
  0
VERTEX
  5
4C1
330
4AB
100
AcDbEntity
  8
Spigoli visibili(ISO)
100
AcDbVertex
100
AcDb2dVertex
 10
331.4236624993904
 20
504.7191857895852
 30
0.0
  0
VERTEX
  5
4C2
330
4AB
100
AcDbEntity
  8
Spigoli visibili(ISO)
100
AcDbVertex
100
AcDb2dVertex
 10
331.9413054444418
 20
504.5927342581371
 30
0.0
  0
VERTEX
  5
4C3
330
4AB
100
AcDbEntity
  8
Spigoli visibili(ISO)
100
AcDbVertex
100
AcDb2dVertex
 10
332.4732964940892
 20
504.4487303449919
 30
0.0
  0
VERTEX
  5
4C4
330
4AB
100
AcDbEntity
  8
Spigoli visibili(ISO)
100
AcDbVertex
100
AcDb2dVertex
 10
333.0217633851396
 20
504.2861824077681
 30
0.0
  0
VERTEX
  5
4C5
330
4AB
100
AcDbEntity
  8
Spigoli visibili(ISO)
100
AcDbVertex
100
AcDb2dVertex
 10
333.5890312947856
 20
504.1039564339917
 30
0.0
  0
SEQEND
  5
4AE
330
4AB
100
AcDbEntity
  8
Spigoli visibili(ISO)
  0
LINE
  5
4C6
330
6C
100
AcDbEntity
  8
Spigoli visibili(ISO)
100
AcDbLine
 10
321.5859191983315
 20
504.1039593707066
 30
0.0
 11
321.5859191983315
 21
498.2517023720919
 31
0.0
  0
POLYLINE
  5
4C7
330
6C
100
AcDbEntity
  8
Spigoli visibili(ISO)
100
AcDb2dPolyline
 66
     1
 10
0.0
 20
0.0
 30
0.0
 70
   128
  0
VERTEX
  5
4C8
330
4C7
100
AcDbEntity
  8
Spigoli visibili(ISO)
100
AcDbVertex
100
AcDb2dVertex
 10
333.5890312947857
 20
498.2517039116396
 30
0.0
  0
VERTEX
  5
4C9
330
4C7
100
AcDbEntity
  8
Spigoli visibili(ISO)
100
AcDbVertex
100
AcDb2dVertex
 10
333.0217633851396
 20
498.069470912595
 30
0.0
  0
VERTEX
  5
4CB
330
4C7
100
AcDbEntity
  8
Spigoli visibili(ISO)
100
AcDbVertex
100
AcDb2dVertex
 10
332.4732964940892
 20
497.9069318239653
 30
0.0
  0
VERTEX
  5
4CC
330
4C7
100
AcDbEntity
  8
Spigoli visibili(ISO)
100
AcDbVertex
100
AcDb2dVertex
 10
331.9413054444418
 20
497.7629304736166
 30
0.0
  0
VERTEX
  5
4CD
330
4C7
100
AcDbEntity
  8
Spigoli visibili(ISO)
100
AcDbVertex
100
AcDb2dVertex
 10
331.4236624993904
 20
497.6364691413626
 30
0.0
  0
VERTEX
  5
4CE
330
4C7
100
AcDbEntity
  8
Spigoli visibili(ISO)
100
AcDbVertex
100
AcDb2dVertex
 10
330.9184064426048
 20
497.5267193126941
 30
0.0
  0
VERTEX
  5
4CF
330
4C7
100
AcDbEntity
  8
Spigoli visibili(ISO)
100
AcDbVertex
100
AcDb2dVertex
 10
330.4237153091055
 20
497.4329538250676
 30
0.0
  0
VERTEX
  5
4D0
330
4C7
100
AcDbEntity
  8
Spigoli visibili(ISO)
100
AcDbVertex
100
AcDb2dVertex
 10
329.9378823198896
 20
497.3545717066985
 30
0.0
  0
VERTEX
  5
4D1
330
4C7
100
AcDbEntity
  8
Spigoli visibili(ISO)
100
AcDbVertex
100
AcDb2dVertex
 10
329.4592954673391
 20
497.2910840914978
 30
0.0
  0
VERTEX
  5
4D2
330
4C7
100
AcDbEntity
  8
Spigoli visibili(ISO)
100
AcDbVertex
100
AcDb2dVertex
 10
328.9864187397579
 20
497.2420985170785
 30
0.0
  0
VERTEX
  5
4D3
330
4C7
100
AcDbEntity
  8
Spigoli visibili(ISO)
100
AcDbVertex
100
AcDb2dVertex
 10
328.5177745380023
 20
497.2073284414199
 30
0.0
  0
VERTEX
  5
4D4
330
4C7
100
AcDbEntity
  8
Spigoli visibili(ISO)
100
AcDbVertex
100
AcDb2dVertex
 10
328.0519290723422
 20
497.1865410911485
 30
0.0
  0
VERTEX
  5
4D5
330
4C7
100
AcDbEntity
  8
Spigoli visibili(ISO)
100
AcDbVertex
100
AcDb2dVertex
 10
327.5874753751375
 20
497.1796261724526
 30
0.0
  0
VERTEX
  5
4D6
330
4C7
100
AcDbEntity
  8
Spigoli visibili(ISO)
100
AcDbVertex
100
AcDb2dVertex
 10
327.1230216779328
 20
497.1865387711003
 30
0.0
  0
VERTEX
  5
4D7
330
4C7
100
AcDbEntity
  8
Spigoli visibili(ISO)
100
AcDbVertex
100
AcDb2dVertex
 10
326.6571762122727
 20
497.2073233340303
 30
0.0
  0
VERTEX
  5
4D8
330
4C7
100
AcDbEntity
  8
Spigoli visibili(ISO)
100
AcDbVertex
100
AcDb2dVertex
 10
326.1885317124939
 20
497.2421004414903
 30
0.0
  0
VERTEX
  5
4D9
330
4C7
100
AcDbEntity
  8
Spigoli visibili(ISO)
100
AcDbVertex
100
AcDb2dVertex
 10
325.715655282936
 20
497.2910808921013
 30
0.0
  0
VERTEX
  5
4DA
330
4C7
100
AcDbEntity
  8
Spigoli visibili(ISO)
100
AcDbVertex
100
AcDb2dVertex
 10
325.2370681323622
 20
497.3545660827209
 30
0.0
  0
VERTEX
  5
4DB
330
4C7
100
AcDbEntity
  8
Spigoli visibili(ISO)
100
AcDbVertex
100
AcDb2dVertex
 10
324.7512354411694
 20
497.432945154448
 30
0.0
  0
VERTEX
  5
4DC
330
4C7
100
AcDbEntity
  8
Spigoli visibili(ISO)
100
AcDbVertex
100
AcDb2dVertex
 10
324.2565437116237
 20
497.5267239224774
 30
0.0
  0
VERTEX
  5
4DD
330
4C7
100
AcDbEntity
  8
Spigoli visibili(ISO)
100
AcDbVertex
100
AcDb2dVertex
 10
323.7512876548381
 20
497.6364756758523
 30
0.0
  0
VERTEX
  5
4DE
330
4C7
100
AcDbEntity
  8
Spigoli visibili(ISO)
100
AcDbVertex
100
AcDb2dVertex
 10
323.2336445607752
 20
497.7629272073003
 30
0.0
  0
VERTEX
  5
4DF
330
4C7
100
AcDbEntity
  8
Spigoli visibili(ISO)
100
AcDbVertex
100
AcDb2dVertex
 10
322.7016540326684
 20
497.9069311204455
 30
0.0
  0
VERTEX
  5
4E0
330
4C7
100
AcDbEntity
  8
Spigoli visibili(ISO)
100
AcDbVertex
100
AcDb2dVertex
 10
322.1531875886528
 20
498.0694790576694
 30
0.0
  0
VERTEX
  5
4E1
330
4C7
100
AcDbEntity
  8
Spigoli visibili(ISO)
100
AcDbVertex
100
AcDb2dVertex
 10
321.5859194554893
 20
498.2517062685115
 30
0.0
  0
SEQEND
  5
4CA
330
4C7
100
AcDbEntity
  8
Spigoli visibili(ISO)
  0
LINE
  5
4E2
330
6C
100
AcDbEntity
  8
Spigoli visibili(ISO)
100
AcDbLine
 10
333.5890312947857
 20
504.1039593707065
 30
0.0
 11
333.5890312947857
 21
498.2517023720919
 31
0.0
  0
POLYLINE
  5
4E3
330
6C
100
AcDbEntity
  8
Spigoli visibili(ISO)
100
AcDb2dPolyline
 66
     1
 10
0.0
 20
0.0
 30
0.0
 70
   128
  0
VERTEX
  5
4E4
330
4E3
100
AcDbEntity
  8
Spigoli visibili(ISO)
100
AcDbVertex
100
AcDb2dVertex
 10
333.5890312947859
 20
504.1039564339917
 30
0.0
  0
VERTEX
  5
4E5
330
4E3
100
AcDbEntity
  8
Spigoli visibili(ISO)
100
AcDbVertex
100
AcDb2dVertex
 10
334.1562992044317
 20
504.2861824077681
 30
0.0
  0
VERTEX
  5
4E7
330
4E3
100
AcDbEntity
  8
Spigoli visibili(ISO)
100
AcDbVertex
100
AcDb2dVertex
 10
334.704766095482
 20
504.4487303449919
 30
0.0
  0
VERTEX
  5
4E8
330
4E3
100
AcDbEntity
  8
Spigoli visibili(ISO)
100
AcDbVertex
100
AcDb2dVertex
 10
335.2367571451292
 20
504.5927342581371
 30
0.0
  0
VERTEX
  5
4E9
330
4E3
100
AcDbEntity
  8
Spigoli visibili(ISO)
100
AcDbVertex
100
AcDb2dVertex
 10
335.7544000901802
 20
504.7191857895852
 30
0.0
  0
VERTEX
  5
4EA
330
4E3
100
AcDbEntity
  8
Spigoli visibili(ISO)
100
AcDbVertex
100
AcDb2dVertex
 10
336.2596561469658
 20
504.8289387800259
 30
0.0
  0
VERTEX
  5
4EB
330
4E3
100
AcDbEntity
  8
Spigoli visibili(ISO)
100
AcDbVertex
100
AcDb2dVertex
 10
336.7543472804648
 20
504.9227067943258
 30
0.0
  0
VERTEX
  5
4EC
330
4E3
100
AcDbEntity
  8
Spigoli visibili(ISO)
100
AcDbVertex
100
AcDb2dVertex
 10
337.2401802696806
 20
505.0010953827166
 30
0.0
  0
VERTEX
  5
4ED
330
4E3
100
AcDbEntity
  8
Spigoli visibili(ISO)
100
AcDbVertex
100
AcDb2dVertex
 10
337.718767122231
 20
505.0645805733362
 30
0.0
  0
VERTEX
  5
4EE
330
4E3
100
AcDbEntity
  8
Spigoli visibili(ISO)
100
AcDbVertex
100
AcDb2dVertex
 10
338.1916438498119
 20
505.113562261013
 30
0.0
  0
VERTEX
  5
4EF
330
4E3
100
AcDbEntity
  8
Spigoli visibili(ISO)
100
AcDbVertex
100
AcDb2dVertex
 10
338.6602880515674
 20
505.1483381314072
 30
0.0
  0
VERTEX
  5
4F0
330
4E3
100
AcDbEntity
  8
Spigoli visibili(ISO)
100
AcDbVertex
100
AcDb2dVertex
 10
339.1261335172274
 20
505.1691239314029
 30
0.0
  0
VERTEX
  5
4F1
330
4E3
100
AcDbEntity
  8
Spigoli visibili(ISO)
100
AcDbVertex
100
AcDb2dVertex
 10
339.5905872144319
 20
505.1760365300506
 30
0.0
  0
VERTEX
  5
4F2
330
4E3
100
AcDbEntity
  8
Spigoli visibili(ISO)
100
AcDbVertex
100
AcDb2dVertex
 10
340.0550409116364
 20
505.169120374289
 30
0.0
  0
VERTEX
  5
4F3
330
4E3
100
AcDbEntity
  8
Spigoli visibili(ISO)
100
AcDbVertex
100
AcDb2dVertex
 10
340.5208863772965
 20
505.1483330240175
 30
0.0
  0
VERTEX
  5
4F4
330
4E3
100
AcDbEntity
  8
Spigoli visibili(ISO)
100
AcDbVertex
100
AcDb2dVertex
 10
340.9895308770751
 20
505.1135641854247
 30
0.0
  0
VERTEX
  5
4F5
330
4E3
100
AcDbEntity
  8
Spigoli visibili(ISO)
100
AcDbVertex
100
AcDb2dVertex
 10
341.4624073066328
 20
505.0645773739396
 30
0.0
  0
VERTEX
  5
4F6
330
4E3
100
AcDbEntity
  8
Spigoli visibili(ISO)
100
AcDbVertex
100
AcDb2dVertex
 10
341.9409944572064
 20
505.0010897587389
 30
0.0
  0
VERTEX
  5
4F7
330
4E3
100
AcDbEntity
  8
Spigoli visibili(ISO)
100
AcDbVertex
100
AcDb2dVertex
 10
342.426827148399
 20
504.9227088774357
 30
0.0
  0
VERTEX
  5
4F8
330
4E3
100
AcDbEntity
  8
Spigoli visibili(ISO)
100
AcDbVertex
100
AcDb2dVertex
 10
342.9215188779445
 20
504.8289421527434
 30
0.0
  0
VERTEX
  5
4F9
330
4E3
100
AcDbEntity
  8
Spigoli visibili(ISO)
100
AcDbVertex
100
AcDb2dVertex
 10
343.42677493473
 20
504.7191923240748
 30
0.0
  0
VERTEX
  5
4FA
330
4E3
100
AcDbEntity
  8
Spigoli visibili(ISO)
100
AcDbVertex
100
AcDb2dVertex
 10
343.9444180287927
 20
504.5927309918209
 30
0.0
  0
VERTEX
  5
4FB
330
4E3
100
AcDbEntity
  8
Spigoli visibili(ISO)
100
AcDbVertex
100
AcDb2dVertex
 10
344.4764085568993
 20
504.4487296414721
 30
0.0
  0
VERTEX
  5
4FC
330
4E3
100
AcDbEntity
  8
Spigoli visibili(ISO)
100
AcDbVertex
100
AcDb2dVertex
 10
345.0248750009148
 20
504.2861917899083
 30
0.0
  0
VERTEX
  5
4FD
330
4E3
100
AcDbEntity
  8
Spigoli visibili(ISO)
100
AcDbVertex
100
AcDb2dVertex
 10
345.5921431340781
 20
504.1039575537978
 30
0.0
  0
SEQEND
  5
4E6
330
4E3
100
AcDbEntity
  8
Spigoli visibili(ISO)
  0
POLYLINE
  5
4FE
330
6C
100
AcDbEntity
  8
Spigoli visibili(ISO)
100
AcDb2dPolyline
 66
     1
 10
0.0
 20
0.0
 30
0.0
 70
   128
  0
VERTEX
  5
4FF
330
4FE
100
AcDbEntity
  8
Spigoli visibili(ISO)
100
AcDbVertex
100
AcDb2dVertex
 10
345.5921431340781
 20
498.2517062685115
 30
0.0
  0
VERTEX
  5
500
330
4FE
100
AcDbEntity
  8
Spigoli visibili(ISO)
100
AcDbVertex
100
AcDb2dVertex
 10
345.0248750009148
 20
498.0694790576694
 30
0.0
  0
VERTEX
  5
502
330
4FE
100
AcDbEntity
  8
Spigoli visibili(ISO)
100
AcDbVertex
100
AcDb2dVertex
 10
344.4764085568993
 20
497.9069311204455
 30
0.0
  0
VERTEX
  5
503
330
4FE
100
AcDbEntity
  8
Spigoli visibili(ISO)
100
AcDbVertex
100
AcDb2dVertex
 10
343.9444180287927
 20
497.7629272073003
 30
0.0
  0
VERTEX
  5
504
330
4FE
100
AcDbEntity
  8
Spigoli visibili(ISO)
100
AcDbVertex
100
AcDb2dVertex
 10
343.42677493473
 20
497.6364756758523
 30
0.0
  0
VERTEX
  5
505
330
4FE
100
AcDbEntity
  8
Spigoli visibili(ISO)
100
AcDbVertex
100
AcDb2dVertex
 10
342.9215188779445
 20
497.5267239224774
 30
0.0
  0
VERTEX
  5
506
330
4FE
100
AcDbEntity
  8
Spigoli visibili(ISO)
100
AcDbVertex
100
AcDb2dVertex
 10
342.426827148399
 20
497.432945154448
 30
0.0
  0
VERTEX
  5
507
330
4FE
100
AcDbEntity
  8
Spigoli visibili(ISO)
100
AcDbVertex
100
AcDb2dVertex
 10
341.9409944572064
 20
497.3545660827209
 30
0.0
  0
VERTEX
  5
508
330
4FE
100
AcDbEntity
  8
Spigoli visibili(ISO)
100
AcDbVertex
100
AcDb2dVertex
 10
341.4624073066328
 20
497.2910808921013
 30
0.0
  0
VERTEX
  5
509
330
4FE
100
AcDbEntity
  8
Spigoli visibili(ISO)
100
AcDbVertex
100
AcDb2dVertex
 10
340.9895308770751
 20
497.2421004414903
 30
0.0
  0
VERTEX
  5
50A
330
4FE
100
AcDbEntity
  8
Spigoli visibili(ISO)
100
AcDbVertex
100
AcDb2dVertex
 10
340.5208863772965
 20
497.2073233340303
 30
0.0
  0
VERTEX
  5
50B
330
4FE
100
AcDbEntity
  8
Spigoli visibili(ISO)
100
AcDbVertex
100
AcDb2dVertex
 10
340.0550409116364
 20
497.1865387711003
 30
0.0
  0
VERTEX
  5
50C
330
4FE
100
AcDbEntity
  8
Spigoli visibili(ISO)
100
AcDbVertex
100
AcDb2dVertex
 10
339.5905872144319
 20
497.1796261724526
 30
0.0
  0
VERTEX
  5
50D
330
4FE
100
AcDbEntity
  8
Spigoli visibili(ISO)
100
AcDbVertex
100
AcDb2dVertex
 10
339.1261335172274
 20
497.1865410911485
 30
0.0
  0
VERTEX
  5
50E
330
4FE
100
AcDbEntity
  8
Spigoli visibili(ISO)
100
AcDbVertex
100
AcDb2dVertex
 10
338.6602880515674
 20
497.2073284414199
 30
0.0
  0
VERTEX
  5
50F
330
4FE
100
AcDbEntity
  8
Spigoli visibili(ISO)
100
AcDbVertex
100
AcDb2dVertex
 10
338.1916438498119
 20
497.2420985170785
 30
0.0
  0
VERTEX
  5
510
330
4FE
100
AcDbEntity
  8
Spigoli visibili(ISO)
100
AcDbVertex
100
AcDb2dVertex
 10
337.718767122231
 20
497.2910840914978
 30
0.0
  0
VERTEX
  5
511
330
4FE
100
AcDbEntity
  8
Spigoli visibili(ISO)
100
AcDbVertex
100
AcDb2dVertex
 10
337.2401802696806
 20
497.3545717066985
 30
0.0
  0
VERTEX
  5
512
330
4FE
100
AcDbEntity
  8
Spigoli visibili(ISO)
100
AcDbVertex
100
AcDb2dVertex
 10
336.7543472804648
 20
497.4329538250676
 30
0.0
  0
VERTEX
  5
513
330
4FE
100
AcDbEntity
  8
Spigoli visibili(ISO)
100
AcDbVertex
100
AcDb2dVertex
 10
336.2596561469658
 20
497.5267193126941
 30
0.0
  0
VERTEX
  5
514
330
4FE
100
AcDbEntity
  8
Spigoli visibili(ISO)
100
AcDbVertex
100
AcDb2dVertex
 10
335.7544000901802
 20
497.6364691413626
 30
0.0
  0
VERTEX
  5
515
330
4FE
100
AcDbEntity
  8
Spigoli visibili(ISO)
100
AcDbVertex
100
AcDb2dVertex
 10
335.2367571451292
 20
497.7629304736166
 30
0.0
  0
VERTEX
  5
516
330
4FE
100
AcDbEntity
  8
Spigoli visibili(ISO)
100
AcDbVertex
100
AcDb2dVertex
 10
334.704766095482
 20
497.9069318239653
 30
0.0
  0
VERTEX
  5
517
330
4FE
100
AcDbEntity
  8
Spigoli visibili(ISO)
100
AcDbVertex
100
AcDb2dVertex
 10
334.1562992044317
 20
498.069470912595
 30
0.0
  0
VERTEX
  5
518
330
4FE
100
AcDbEntity
  8
Spigoli visibili(ISO)
100
AcDbVertex
100
AcDb2dVertex
 10
333.5890312947857
 20
498.2517039116396
 30
0.0
  0
SEQEND
  5
501
330
4FE
100
AcDbEntity
  8
Spigoli visibili(ISO)
  0
LINE
  5
519
330
6C
100
AcDbEntity
  8
Spigoli visibili(ISO)
100
AcDbLine
 10
345.5921433912359
 20
498.2517023720919
 30
0.0
 11
345.5921433912359
 21
504.1039593707065
 31
0.0
  0
LINE
  5
51A
330
6C
100
AcDbEntity
  8
Spigoli visibili(ISO)
100
AcDbLine
 10
345.5921431340781
 20
504.1039575537978
 30
0.0
 11
345.592143134076
 21
505.1760388282928
 31
0.0
  0
LINE
  5
51B
330
6C
100
AcDbEntity
  8
Spigoli visibili(ISO)
100
AcDbLine
 10
345.592143134076
 20
497.1796284706946
 30
0.0
 11
345.5921431340781
 21
498.2517062685115
 31
0.0
  0
LINE
  5
51C
330
6C
100
AcDbEntity
  8
Spigoli visibili(ISO)
100
AcDbLine
 10
321.5859194554872
 20
505.1760388282928
 30
0.0
 11
321.5859194554893
 21
504.1039575537978
 31
0.0
  0
LINE
  5
51D
330
6C
100
AcDbEntity
  8
Spigoli visibili(ISO)
100
AcDbLine
 10
321.5859194554893
 20
498.2517062685115
 30
0.0
 11
321.5859194554872
 21
497.1796284706946
 31
0.0
  0
LINE
  5
51E
330
6C
100
AcDbEntity
  8
Spigoli visibili(ISO)
100
AcDbLine
 10
345.5890312947816
 20
505.1778308713993
 30
0.0
 11
321.5890312947817
 21
505.1778308713993
 31
0.0
  0
LINE
  5
51F
330
6C
100
AcDbEntity
  8
Spigoli visibili(ISO)
100
AcDbLine
 10
321.5890312947816
 20
497.1778308713993
 30
0.0
 11
321.5859191983294
 21
497.1796276411237
 31
0.0
  0
LINE
  5
520
330
6C
100
AcDbEntity
  8
Spigoli visibili(ISO)
100
AcDbLine
 10
345.5890312947816
 20
497.1778308713992
 30
0.0
 11
345.5921433912339
 21
497.1796276411237
 31
0.0
  0
LINE
  5
521
330
6C
100
AcDbEntity
  8
Spigoli visibili(ISO)
100
AcDbLine
 10
345.5890312947815
 20
505.1778308713992
 30
0.0
 11
345.5921433912339
 21
505.1760341016747
 31
0.0
  0
LINE
  5
522
330
6C
100
AcDbEntity
  8
Spigoli visibili(ISO)
100
AcDbLine
 10
321.5890312947817
 20
505.1778308713992
 30
0.0
 11
321.5859191983294
 21
505.1760341016747
 31
0.0
  0
LINE
  5
523
330
6C
100
AcDbEntity
  8
Spigoli visibili(ISO)
100
AcDbLine
 10
91.58591945548714
 20
505.1760388282928
 30
0.0
 11
91.5859194554892
 21
504.1039610304759
 31
0.0
  0
LINE
  5
524
330
6C
100
AcDbEntity
  8
Spigoli visibili(ISO)
100
AcDbLine
 10
91.5859194554892
 20
498.2517002285259
 30
0.0
 11
91.58591945548714
 21
497.1796284706947
 31
0.0
  0
LINE
  5
525
330
6C
100
AcDbEntity
  8
Spigoli visibili(ISO)
100
AcDbLine
 10
91.5859191983314
 20
504.1039593707066
 30
0.0
 11
91.5859191983314
 21
498.251702372092
 31
0.0
  0
POLYLINE
  5
526
330
6C
100
AcDbEntity
  8
Spigoli visibili(ISO)
100
AcDb2dPolyline
 66
     1
 10
0.0
 20
0.0
 30
0.0
 70
   128
  0
VERTEX
  5
527
330
526
100
AcDbEntity
  8
Spigoli visibili(ISO)
100
AcDbVertex
100
AcDb2dVertex
 10
91.5859194554892
 20
504.1039610304759
 30
0.0
  0
VERTEX
  5
528
330
526
100
AcDbEntity
  8
Spigoli visibili(ISO)
100
AcDbVertex
100
AcDb2dVertex
 10
92.15318758865274
 20
504.286188241318
 30
0.0
  0
VERTEX
  5
52A
330
526
100
AcDbEntity
  8
Spigoli visibili(ISO)
100
AcDbVertex
100
AcDb2dVertex
 10
92.70165403266835
 20
504.4487254248124
 30
0.0
  0
VERTEX
  5
52B
330
526
100
AcDbEntity
  8
Spigoli visibili(ISO)
100
AcDbVertex
100
AcDb2dVertex
 10
93.23364456077513
 20
504.5927305750234
 30
0.0
  0
VERTEX
  5
52C
330
526
100
AcDbEntity
  8
Spigoli visibili(ISO)
100
AcDbVertex
100
AcDb2dVertex
 10
93.75128765483802
 20
504.719191623135
 30
0.0
  0
VERTEX
  5
52D
330
526
100
AcDbEntity
  8
Spigoli visibili(ISO)
100
AcDbVertex
100
AcDb2dVertex
 10
94.25654371162369
 20
504.82894337651
 30
0.0
  0
VERTEX
  5
52E
330
526
100
AcDbEntity
  8
Spigoli visibili(ISO)
100
AcDbVertex
100
AcDb2dVertex
 10
94.75123544116938
 20
504.9227113908099
 30
0.0
  0
VERTEX
  5
52F
330
526
100
AcDbEntity
  8
Spigoli visibili(ISO)
100
AcDbVertex
100
AcDb2dVertex
 10
95.23706813236207
 20
505.0010916996028
 30
0.0
  0
VERTEX
  5
530
330
526
100
AcDbEntity
  8
Spigoli visibili(ISO)
100
AcDbVertex
100
AcDb2dVertex
 10
95.71565528293589
 20
505.0645756531566
 30
0.0
  0
VERTEX
  5
531
330
526
100
AcDbEntity
  8
Spigoli visibili(ISO)
100
AcDbVertex
100
AcDb2dVertex
 10
96.18853171249376
 20
505.1135573408335
 30
0.0
  0
VERTEX
  5
532
330
526
100
AcDbEntity
  8
Spigoli visibili(ISO)
100
AcDbVertex
100
AcDb2dVertex
 10
96.6571762122726
 20
505.1483332112276
 30
0.0
  0
VERTEX
  5
533
330
526
100
AcDbEntity
  8
Spigoli visibili(ISO)
100
AcDbVertex
100
AcDb2dVertex
 10
97.12302167793277
 20
505.1691190112234
 30
0.0
  0
VERTEX
  5
534
330
526
100
AcDbEntity
  8
Spigoli visibili(ISO)
100
AcDbVertex
100
AcDb2dVertex
 10
97.58747537513745
 20
505.1760316098712
 30
0.0
  0
VERTEX
  5
535
330
526
100
AcDbEntity
  8
Spigoli visibili(ISO)
100
AcDbVertex
100
AcDb2dVertex
 10
98.05192907234212
 20
505.1691154541095
 30
0.0
  0
VERTEX
  5
536
330
526
100
AcDbEntity
  8
Spigoli visibili(ISO)
100
AcDbVertex
100
AcDb2dVertex
 10
98.51777453800231
 20
505.1483376205017
 30
0.0
  0
VERTEX
  5
537
330
526
100
AcDbEntity
  8
Spigoli visibili(ISO)
100
AcDbVertex
100
AcDb2dVertex
 10
98.9864187397579
 20
505.1135592652451
 30
0.0
  0
VERTEX
  5
538
330
526
100
AcDbEntity
  8
Spigoli visibili(ISO)
100
AcDbVertex
100
AcDb2dVertex
 10
99.459295467339
 20
505.064573690826
 30
0.0
  0
VERTEX
  5
539
330
526
100
AcDbEntity
  8
Spigoli visibili(ISO)
100
AcDbVertex
100
AcDb2dVertex
 10
99.93788231988958
 20
505.0010955922888
 30
0.0
  0
VERTEX
  5
53A
330
526
100
AcDbEntity
  8
Spigoli visibili(ISO)
100
AcDbVertex
100
AcDb2dVertex
 10
100.4237153091055
 20
504.9227134739198
 30
0.0
  0
VERTEX
  5
53B
330
526
100
AcDbEntity
  8
Spigoli visibili(ISO)
100
AcDbVertex
100
AcDb2dVertex
 10
100.9184064426047
 20
504.8289467492275
 30
0.0
  0
VERTEX
  5
53C
330
526
100
AcDbEntity
  8
Spigoli visibili(ISO)
100
AcDbVertex
100
AcDb2dVertex
 10
101.4236624993904
 20
504.7191874038953
 30
0.0
  0
VERTEX
  5
53D
330
526
100
AcDbEntity
  8
Spigoli visibili(ISO)
100
AcDbVertex
100
AcDb2dVertex
 10
101.9413054444417
 20
504.5927368253709
 30
0.0
  0
VERTEX
  5
53E
330
526
100
AcDbEntity
  8
Spigoli visibili(ISO)
100
AcDbVertex
100
AcDb2dVertex
 10
102.4732964940891
 20
504.4487247212926
 30
0.0
  0
VERTEX
  5
53F
330
526
100
AcDbEntity
  8
Spigoli visibili(ISO)
100
AcDbVertex
100
AcDb2dVertex
 10
103.0217633851395
 20
504.2861868697287
 30
0.0
  0
VERTEX
  5
540
330
526
100
AcDbEntity
  8
Spigoli visibili(ISO)
100
AcDbVertex
100
AcDb2dVertex
 10
103.5890312947856
 20
504.1039621502819
 30
0.0
  0
SEQEND
  5
529
330
526
100
AcDbEntity
  8
Spigoli visibili(ISO)
  0
POLYLINE
  5
541
330
6C
100
AcDbEntity
  8
Spigoli visibili(ISO)
100
AcDb2dPolyline
 66
     1
 10
0.0
 20
0.0
 30
0.0
 70
   128
  0
VERTEX
  5
542
330
541
100
AcDbEntity
  8
Spigoli visibili(ISO)
100
AcDbVertex
100
AcDb2dVertex
 10
103.5890312947856
 20
498.251701348332
 30
0.0
  0
VERTEX
  5
543
330
541
100
AcDbEntity
  8
Spigoli visibili(ISO)
100
AcDbVertex
100
AcDb2dVertex
 10
103.0217633851395
 20
498.06947413749
 30
0.0
  0
VERTEX
  5
545
330
541
100
AcDbEntity
  8
Spigoli visibili(ISO)
100
AcDbVertex
100
AcDb2dVertex
 10
102.4732964940891
 20
497.9069369539955
 30
0.0
  0
VERTEX
  5
546
330
541
100
AcDbEntity
  8
Spigoli visibili(ISO)
100
AcDbVertex
100
AcDb2dVertex
 10
101.9413054444417
 20
497.7629318037845
 30
0.0
  0
VERTEX
  5
547
330
541
100
AcDbEntity
  8
Spigoli visibili(ISO)
100
AcDbVertex
100
AcDb2dVertex
 10
101.4236624993904
 20
497.6364707556728
 30
0.0
  0
VERTEX
  5
548
330
541
100
AcDbEntity
  8
Spigoli visibili(ISO)
100
AcDbVertex
100
AcDb2dVertex
 10
100.9184064426047
 20
497.526719002298
 30
0.0
  0
VERTEX
  5
549
330
541
100
AcDbEntity
  8
Spigoli visibili(ISO)
100
AcDbVertex
100
AcDb2dVertex
 10
100.4237153091055
 20
497.432950987998
 30
0.0
  0
VERTEX
  5
54A
330
541
100
AcDbEntity
  8
Spigoli visibili(ISO)
100
AcDbVertex
100
AcDb2dVertex
 10
99.93788231988958
 20
497.354570679205
 30
0.0
  0
VERTEX
  5
54B
330
541
100
AcDbEntity
  8
Spigoli visibili(ISO)
100
AcDbVertex
100
AcDb2dVertex
 10
99.459295467339
 20
497.2910867256513
 30
0.0
  0
VERTEX
  5
54C
330
541
100
AcDbEntity
  8
Spigoli visibili(ISO)
100
AcDbVertex
100
AcDb2dVertex
 10
98.9864187397579
 20
497.2421050379744
 30
0.0
  0
VERTEX
  5
54D
330
541
100
AcDbEntity
  8
Spigoli visibili(ISO)
100
AcDbVertex
100
AcDb2dVertex
 10
98.51777453800231
 20
497.2073279305144
 30
0.0
  0
VERTEX
  5
54E
330
541
100
AcDbEntity
  8
Spigoli visibili(ISO)
100
AcDbVertex
100
AcDb2dVertex
 10
98.05192907234212
 20
497.1865433675845
 30
0.0
  0
VERTEX
  5
54F
330
541
100
AcDbEntity
  8
Spigoli visibili(ISO)
100
AcDbVertex
100
AcDb2dVertex
 10
97.58747537513745
 20
497.1796307689367
 30
0.0
  0
VERTEX
  5
550
330
541
100
AcDbEntity
  8
Spigoli visibili(ISO)
100
AcDbVertex
100
AcDb2dVertex
 10
97.12302167793277
 20
497.1865374080348
 30
0.0
  0
VERTEX
  5
551
330
541
100
AcDbEntity
  8
Spigoli visibili(ISO)
100
AcDbVertex
100
AcDb2dVertex
 10
96.6571762122726
 20
497.2073247583062
 30
0.0
  0
VERTEX
  5
552
330
541
100
AcDbEntity
  8
Spigoli visibili(ISO)
100
AcDbVertex
100
AcDb2dVertex
 10
96.18853171249376
 20
497.2421031135627
 30
0.0
  0
VERTEX
  5
553
330
541
100
AcDbEntity
  8
Spigoli visibili(ISO)
100
AcDbVertex
100
AcDb2dVertex
 10
95.71565528293589
 20
497.2910791713183
 30
0.0
  0
VERTEX
  5
554
330
541
100
AcDbEntity
  8
Spigoli visibili(ISO)
100
AcDbVertex
100
AcDb2dVertex
 10
95.23706813236207
 20
497.354566786519
 30
0.0
  0
VERTEX
  5
555
330
541
100
AcDbEntity
  8
Spigoli visibili(ISO)
100
AcDbVertex
100
AcDb2dVertex
 10
94.75123544116938
 20
497.432948904888
 30
0.0
  0
VERTEX
  5
556
330
541
100
AcDbEntity
  8
Spigoli visibili(ISO)
100
AcDbVertex
100
AcDb2dVertex
 10
94.25654371162369
 20
497.5267143925146
 30
0.0
  0
VERTEX
  5
557
330
541
100
AcDbEntity
  8
Spigoli visibili(ISO)
100
AcDbVertex
100
AcDb2dVertex
 10
93.75128765483802
 20
497.6364737378467
 30
0.0
  0
VERTEX
  5
558
330
541
100
AcDbEntity
  8
Spigoli visibili(ISO)
100
AcDbVertex
100
AcDb2dVertex
 10
93.23364456077513
 20
497.7629255534371
 30
0.0
  0
VERTEX
  5
559
330
541
100
AcDbEntity
  8
Spigoli visibili(ISO)
100
AcDbVertex
100
AcDb2dVertex
 10
92.70165403266835
 20
497.9069364204494
 30
0.0
  0
VERTEX
  5
55A
330
541
100
AcDbEntity
  8
Spigoli visibili(ISO)
100
AcDbVertex
100
AcDb2dVertex
 10
92.15318758865274
 20
498.0694755090792
 30
0.0
  0
VERTEX
  5
55B
330
541
100
AcDbEntity
  8
Spigoli visibili(ISO)
100
AcDbVertex
100
AcDb2dVertex
 10
91.5859194554892
 20
498.2517002285259
 30
0.0
  0
SEQEND
  5
544
330
541
100
AcDbEntity
  8
Spigoli visibili(ISO)
  0
LINE
  5
55C
330
6C
100
AcDbEntity
  8
Spigoli visibili(ISO)
100
AcDbLine
 10
103.5890312947856
 20
504.1039593707066
 30
0.0
 11
103.5890312947857
 21
498.251702372092
 31
0.0
  0
POLYLINE
  5
55D
330
6C
100
AcDbEntity
  8
Spigoli visibili(ISO)
100
AcDb2dPolyline
 66
     1
 10
0.0
 20
0.0
 30
0.0
 70
   128
  0
VERTEX
  5
55E
330
55D
100
AcDbEntity
  8
Spigoli visibili(ISO)
100
AcDbVertex
100
AcDb2dVertex
 10
103.5890312947857
 20
504.1039621502819
 30
0.0
  0
VERTEX
  5
55F
330
55D
100
AcDbEntity
  8
Spigoli visibili(ISO)
100
AcDbVertex
100
AcDb2dVertex
 10
104.1562992044316
 20
504.2861868697287
 30
0.0
  0
VERTEX
  5
561
330
55D
100
AcDbEntity
  8
Spigoli visibili(ISO)
100
AcDbVertex
100
AcDb2dVertex
 10
104.7047660954818
 20
504.4487247212926
 30
0.0
  0
VERTEX
  5
562
330
55D
100
AcDbEntity
  8
Spigoli visibili(ISO)
100
AcDbVertex
100
AcDb2dVertex
 10
105.2367571451291
 20
504.5927368253709
 30
0.0
  0
VERTEX
  5
563
330
55D
100
AcDbEntity
  8
Spigoli visibili(ISO)
100
AcDbVertex
100
AcDb2dVertex
 10
105.7544000901802
 20
504.7191874038953
 30
0.0
  0
VERTEX
  5
564
330
55D
100
AcDbEntity
  8
Spigoli visibili(ISO)
100
AcDbVertex
100
AcDb2dVertex
 10
106.2596561469657
 20
504.8289467492275
 30
0.0
  0
VERTEX
  5
565
330
55D
100
AcDbEntity
  8
Spigoli visibili(ISO)
100
AcDbVertex
100
AcDb2dVertex
 10
106.7543472804648
 20
504.9227134739198
 30
0.0
  0
VERTEX
  5
566
330
55D
100
AcDbEntity
  8
Spigoli visibili(ISO)
100
AcDbVertex
100
AcDb2dVertex
 10
107.2401802696805
 20
505.0010955922888
 30
0.0
  0
VERTEX
  5
567
330
55D
100
AcDbEntity
  8
Spigoli visibili(ISO)
100
AcDbVertex
100
AcDb2dVertex
 10
107.718767122231
 20
505.064573690826
 30
0.0
  0
VERTEX
  5
568
330
55D
100
AcDbEntity
  8
Spigoli visibili(ISO)
100
AcDbVertex
100
AcDb2dVertex
 10
108.1916438498119
 20
505.1135592652451
 30
0.0
  0
VERTEX
  5
569
330
55D
100
AcDbEntity
  8
Spigoli visibili(ISO)
100
AcDbVertex
100
AcDb2dVertex
 10
108.6602880515673
 20
505.1483376205017
 30
0.0
  0
VERTEX
  5
56A
330
55D
100
AcDbEntity
  8
Spigoli visibili(ISO)
100
AcDbVertex
100
AcDb2dVertex
 10
109.1261335172273
 20
505.1691154541095
 30
0.0
  0
VERTEX
  5
56B
330
55D
100
AcDbEntity
  8
Spigoli visibili(ISO)
100
AcDbVertex
100
AcDb2dVertex
 10
109.5905872144319
 20
505.1760316098712
 30
0.0
  0
VERTEX
  5
56C
330
55D
100
AcDbEntity
  8
Spigoli visibili(ISO)
100
AcDbVertex
100
AcDb2dVertex
 10
110.0550409116364
 20
505.1691190112234
 30
0.0
  0
VERTEX
  5
56D
330
55D
100
AcDbEntity
  8
Spigoli visibili(ISO)
100
AcDbVertex
100
AcDb2dVertex
 10
110.5208863772964
 20
505.1483332112276
 30
0.0
  0
VERTEX
  5
56E
330
55D
100
AcDbEntity
  8
Spigoli visibili(ISO)
100
AcDbVertex
100
AcDb2dVertex
 10
110.9895308770751
 20
505.1135573408335
 30
0.0
  0
VERTEX
  5
56F
330
55D
100
AcDbEntity
  8
Spigoli visibili(ISO)
100
AcDbVertex
100
AcDb2dVertex
 10
111.4624073066328
 20
505.0645756531566
 30
0.0
  0
VERTEX
  5
570
330
55D
100
AcDbEntity
  8
Spigoli visibili(ISO)
100
AcDbVertex
100
AcDb2dVertex
 10
111.9409944572064
 20
505.0010916996028
 30
0.0
  0
VERTEX
  5
571
330
55D
100
AcDbEntity
  8
Spigoli visibili(ISO)
100
AcDbVertex
100
AcDb2dVertex
 10
112.426827148399
 20
504.9227113908099
 30
0.0
  0
VERTEX
  5
572
330
55D
100
AcDbEntity
  8
Spigoli visibili(ISO)
100
AcDbVertex
100
AcDb2dVertex
 10
112.9215188779445
 20
504.82894337651
 30
0.0
  0
VERTEX
  5
573
330
55D
100
AcDbEntity
  8
Spigoli visibili(ISO)
100
AcDbVertex
100
AcDb2dVertex
 10
113.42677493473
 20
504.719191623135
 30
0.0
  0
VERTEX
  5
574
330
55D
100
AcDbEntity
  8
Spigoli visibili(ISO)
100
AcDbVertex
100
AcDb2dVertex
 10
113.9444180287927
 20
504.5927305750234
 30
0.0
  0
VERTEX
  5
575
330
55D
100
AcDbEntity
  8
Spigoli visibili(ISO)
100
AcDbVertex
100
AcDb2dVertex
 10
114.4764085568993
 20
504.4487254248124
 30
0.0
  0
VERTEX
  5
576
330
55D
100
AcDbEntity
  8
Spigoli visibili(ISO)
100
AcDbVertex
100
AcDb2dVertex
 10
115.0248750009147
 20
504.286188241318
 30
0.0
  0
VERTEX
  5
577
330
55D
100
AcDbEntity
  8
Spigoli visibili(ISO)
100
AcDbVertex
100
AcDb2dVertex
 10
115.5921431340781
 20
504.1039610304759
 30
0.0
  0
SEQEND
  5
560
330
55D
100
AcDbEntity
  8
Spigoli visibili(ISO)
  0
POLYLINE
  5
578
330
6C
100
AcDbEntity
  8
Spigoli visibili(ISO)
100
AcDb2dPolyline
 66
     1
 10
0.0
 20
0.0
 30
0.0
 70
   128
  0
VERTEX
  5
579
330
578
100
AcDbEntity
  8
Spigoli visibili(ISO)
100
AcDbVertex
100
AcDb2dVertex
 10
115.5921431340781
 20
498.2517002285259
 30
0.0
  0
VERTEX
  5
57A
330
578
100
AcDbEntity
  8
Spigoli visibili(ISO)
100
AcDbVertex
100
AcDb2dVertex
 10
115.0248750009147
 20
498.0694755090792
 30
0.0
  0
VERTEX
  5
57C
330
578
100
AcDbEntity
  8
Spigoli visibili(ISO)
100
AcDbVertex
100
AcDb2dVertex
 10
114.4764085568993
 20
497.9069364204494
 30
0.0
  0
VERTEX
  5
57D
330
578
100
AcDbEntity
  8
Spigoli visibili(ISO)
100
AcDbVertex
100
AcDb2dVertex
 10
113.9444180287927
 20
497.7629255534371
 30
0.0
  0
VERTEX
  5
57E
330
578
100
AcDbEntity
  8
Spigoli visibili(ISO)
100
AcDbVertex
100
AcDb2dVertex
 10
113.42677493473
 20
497.6364737378467
 30
0.0
  0
VERTEX
  5
57F
330
578
100
AcDbEntity
  8
Spigoli visibili(ISO)
100
AcDbVertex
100
AcDb2dVertex
 10
112.9215188779445
 20
497.5267143925146
 30
0.0
  0
VERTEX
  5
580
330
578
100
AcDbEntity
  8
Spigoli visibili(ISO)
100
AcDbVertex
100
AcDb2dVertex
 10
112.426827148399
 20
497.432948904888
 30
0.0
  0
VERTEX
  5
581
330
578
100
AcDbEntity
  8
Spigoli visibili(ISO)
100
AcDbVertex
100
AcDb2dVertex
 10
111.9409944572064
 20
497.354566786519
 30
0.0
  0
VERTEX
  5
582
330
578
100
AcDbEntity
  8
Spigoli visibili(ISO)
100
AcDbVertex
100
AcDb2dVertex
 10
111.4624073066328
 20
497.2910791713183
 30
0.0
  0
VERTEX
  5
583
330
578
100
AcDbEntity
  8
Spigoli visibili(ISO)
100
AcDbVertex
100
AcDb2dVertex
 10
110.9895308770751
 20
497.2421031135627
 30
0.0
  0
VERTEX
  5
584
330
578
100
AcDbEntity
  8
Spigoli visibili(ISO)
100
AcDbVertex
100
AcDb2dVertex
 10
110.5208863772964
 20
497.2073247583062
 30
0.0
  0
VERTEX
  5
585
330
578
100
AcDbEntity
  8
Spigoli visibili(ISO)
100
AcDbVertex
100
AcDb2dVertex
 10
110.0550409116364
 20
497.1865374080348
 30
0.0
  0
VERTEX
  5
586
330
578
100
AcDbEntity
  8
Spigoli visibili(ISO)
100
AcDbVertex
100
AcDb2dVertex
 10
109.5905872144319
 20
497.1796307689367
 30
0.0
  0
VERTEX
  5
587
330
578
100
AcDbEntity
  8
Spigoli visibili(ISO)
100
AcDbVertex
100
AcDb2dVertex
 10
109.1261335172273
 20
497.1865433675845
 30
0.0
  0
VERTEX
  5
588
330
578
100
AcDbEntity
  8
Spigoli visibili(ISO)
100
AcDbVertex
100
AcDb2dVertex
 10
108.6602880515673
 20
497.2073279305144
 30
0.0
  0
VERTEX
  5
589
330
578
100
AcDbEntity
  8
Spigoli visibili(ISO)
100
AcDbVertex
100
AcDb2dVertex
 10
108.1916438498119
 20
497.2421050379744
 30
0.0
  0
VERTEX
  5
58A
330
578
100
AcDbEntity
  8
Spigoli visibili(ISO)
100
AcDbVertex
100
AcDb2dVertex
 10
107.718767122231
 20
497.2910867256513
 30
0.0
  0
VERTEX
  5
58B
330
578
100
AcDbEntity
  8
Spigoli visibili(ISO)
100
AcDbVertex
100
AcDb2dVertex
 10
107.2401802696805
 20
497.354570679205
 30
0.0
  0
VERTEX
  5
58C
330
578
100
AcDbEntity
  8
Spigoli visibili(ISO)
100
AcDbVertex
100
AcDb2dVertex
 10
106.7543472804648
 20
497.432950987998
 30
0.0
  0
VERTEX
  5
58D
330
578
100
AcDbEntity
  8
Spigoli visibili(ISO)
100
AcDbVertex
100
AcDb2dVertex
 10
106.2596561469657
 20
497.526719002298
 30
0.0
  0
VERTEX
  5
58E
330
578
100
AcDbEntity
  8
Spigoli visibili(ISO)
100
AcDbVertex
100
AcDb2dVertex
 10
105.7544000901802
 20
497.6364707556728
 30
0.0
  0
VERTEX
  5
58F
330
578
100
AcDbEntity
  8
Spigoli visibili(ISO)
100
AcDbVertex
100
AcDb2dVertex
 10
105.2367571451291
 20
497.7629318037845
 30
0.0
  0
VERTEX
  5
590
330
578
100
AcDbEntity
  8
Spigoli visibili(ISO)
100
AcDbVertex
100
AcDb2dVertex
 10
104.7047660954818
 20
497.9069369539955
 30
0.0
  0
VERTEX
  5
591
330
578
100
AcDbEntity
  8
Spigoli visibili(ISO)
100
AcDbVertex
100
AcDb2dVertex
 10
104.1562992044316
 20
498.06947413749
 30
0.0
  0
VERTEX
  5
592
330
578
100
AcDbEntity
  8
Spigoli visibili(ISO)
100
AcDbVertex
100
AcDb2dVertex
 10
103.5890312947857
 20
498.251701348332
 30
0.0
  0
SEQEND
  5
57B
330
578
100
AcDbEntity
  8
Spigoli visibili(ISO)
  0
LINE
  5
593
330
6C
100
AcDbEntity
  8
Spigoli visibili(ISO)
100
AcDbLine
 10
115.5921433912358
 20
504.1039593707066
 30
0.0
 11
115.5921433912359
 21
498.251702372092
 31
0.0
  0
LINE
  5
594
330
6C
100
AcDbEntity
  8
Spigoli visibili(ISO)
100
AcDbLine
 10
115.5921431340781
 20
504.1039610304759
 30
0.0
 11
115.592143134076
 21
505.1760388282928
 31
0.0
  0
LINE
  5
595
330
6C
100
AcDbEntity
  8
Spigoli visibili(ISO)
100
AcDbLine
 10
115.592143134076
 20
497.1796284706947
 30
0.0
 11
115.5921431340781
 21
498.2517002285259
 31
0.0
  0
LINE
  5
596
330
6C
100
AcDbEntity
  8
Spigoli visibili(ISO)
100
AcDbLine
 10
115.5890312947815
 20
505.1778308713993
 30
0.0
 11
91.58903129478161
 21
505.1778308713993
 31
0.0
  0
LINE
  5
597
330
6C
100
AcDbEntity
  8
Spigoli visibili(ISO)
100
AcDbLine
 10
91.58903129478156
 20
497.1778308713993
 30
0.0
 11
91.58591919832934
 21
497.1796276411238
 31
0.0
  0
LINE
  5
598
330
6C
100
AcDbEntity
  8
Spigoli visibili(ISO)
100
AcDbLine
 10
115.5890312947816
 20
497.1778308713993
 30
0.0
 11
115.5921433912338
 21
497.1796276411238
 31
0.0
  0
LINE
  5
599
330
6C
100
AcDbEntity
  8
Spigoli visibili(ISO)
100
AcDbLine
 10
115.5890312947815
 20
505.1778308713993
 30
0.0
 11
115.5921433912338
 21
505.1760341016747
 31
0.0
  0
LINE
  5
59A
330
6C
100
AcDbEntity
  8
Spigoli visibili(ISO)
100
AcDbLine
 10
91.58903129478161
 20
505.1778308713993
 30
0.0
 11
91.58591919832932
 21
505.1760341016747
 31
0.0
  0
LINE
  5
59B
330
6C
100
AcDbEntity
  8
Spigoli visibili(ISO)
100
AcDbLine
 10
341.5890312947817
 20
518.6778308713995
 30
0.0
 11
325.5890312947816
 21
518.6778308713995
 31
0.0
  0
LINE
  5
59C
330
6C
100
AcDbEntity
  8
Spigoli visibili(ISO)
100
AcDbLine
 10
326.5890312947817
 20
519.6778308713994
 30
0.0
 11
340.5890312947816
 21
519.6778308713994
 31
0.0
  0
LINE
  5
59D
330
6C
100
AcDbEntity
  8
Spigoli visibili(ISO)
100
AcDbLine
 10
340.5890312947816
 20
519.6778308713994
 30
0.0
 11
341.5890312947817
 21
518.6778308713995
 31
0.0
  0
LINE
  5
59E
330
6C
100
AcDbEntity
  8
Spigoli visibili(ISO)
100
AcDbLine
 10
326.5890312947817
 20
519.6778308713994
 30
0.0
 11
325.5890312947816
 21
518.6778308713995
 31
0.0
  0
LINE
  5
59F
330
6C
100
AcDbEntity
  8
Spigoli visibili(ISO)
100
AcDbLine
 10
325.5890312947816
 20
505.1778308713992
 30
0.0
 11
325.5890312947816
 21
518.6778308713995
 31
0.0
  0
LINE
  5
5A0
330
6C
100
AcDbEntity
  8
Spigoli visibili(ISO)
100
AcDbLine
 10
341.5890312947817
 20
505.1778308713992
 30
0.0
 11
341.5890312947817
 21
518.6778308713995
 31
0.0
  0
LINE
  5
5A1
330
6C
100
AcDbEntity
  8
Spigoli visibili(ISO)
100
AcDbLine
 10
111.5890312947816
 20
518.6778308713993
 30
0.0
 11
95.58903129478162
 21
518.6778308713993
 31
0.0
  0
LINE
  5
5A2
330
6C
100
AcDbEntity
  8
Spigoli visibili(ISO)
100
AcDbLine
 10
96.58903129478161
 20
519.6778308713994
 30
0.0
 11
110.5890312947816
 21
519.6778308713994
 31
0.0
  0
LINE
  5
5A3
330
6C
100
AcDbEntity
  8
Spigoli visibili(ISO)
100
AcDbLine
 10
110.5890312947816
 20
519.6778308713994
 30
0.0
 11
111.5890312947816
 21
518.6778308713993
 31
0.0
  0
LINE
  5
5A4
330
6C
100
AcDbEntity
  8
Spigoli visibili(ISO)
100
AcDbLine
 10
96.58903129478163
 20
519.6778308713994
 30
0.0
 11
95.58903129478162
 21
518.6778308713993
 31
0.0
  0
LINE
  5
5A5
330
6C
100
AcDbEntity
  8
Spigoli visibili(ISO)
100
AcDbLine
 10
95.58903129478165
 20
505.1778308713993
 30
0.0
 11
95.58903129478165
 21
518.6778308713993
 31
0.0
  0
LINE
  5
5A6
330
6C
100
AcDbEntity
  8
Spigoli visibili(ISO)
100
AcDbLine
 10
111.5890312947816
 20
505.1778308713993
 30
0.0
 11
111.5890312947816
 21
518.6778308713993
 31
0.0
  0
LINE
  5
5A7
330
6C
100
AcDbEntity
  8
Spigoli visibili(ISO)
100
AcDbLine
 10
368.5890312946242
 20
56.92606719368395
 30
0.0
 11
68.58903129462419
 21
56.92606719359496
 31
0.0
  0
LINE
  5
5A8
330
6C
100
AcDbEntity
  8
Spigoli visibili(ISO)
100
AcDbLine
 10
68.58903129455597
 20
286.926067193595
 30
0.0
 11
368.589031294556
 21
286.926067193684
 31
0.0
  0
LINE
  5
5A9
330
6C
100
AcDbEntity
  8
Spigoli visibili(ISO)
100
AcDbLine
 10
68.58903129462183
 20
64.92606719359736
 30
0.0
 11
68.5890312946242
 21
56.92606719359497
 31
0.0
  0
LINE
  5
5AA
330
6C
100
AcDbEntity
  8
Spigoli visibili(ISO)
100
AcDbLine
 10
368.5890312946219
 20
64.92606719368635
 30
0.0
 11
368.5890312946242
 21
56.92606719368398
 31
0.0
  0
LINE
  5
5AB
330
6C
100
AcDbEntity
  8
Spigoli visibili(ISO)
100
AcDbLine
 10
68.58903129455597
 20
286.9260671935951
 30
0.0
 11
68.58903129455834
 21
278.9260671935974
 31
0.0
  0
LINE
  5
5AC
330
6C
100
AcDbEntity
  8
Spigoli visibili(ISO)
100
AcDbLine
 10
368.589031294556
 20
286.926067193684
 30
0.0
 11
368.5890312945583
 21
278.9260671936864
 31
0.0
  0
LINE
  5
5AD
330
6C
100
AcDbEntity
  8
Spigoli visibili(ISO)
100
AcDbLine
 10
213.8661093800732
 20
159.3704289974918
 30
0.0
 11
213.8661093800738
 21
157.3149925892072
 31
0.0
  0
LINE
  5
5AE
330
6C
100
AcDbEntity
  8
Spigoli visibili(ISO)
100
AcDbLine
 10
213.8661093800738
 20
157.3149925892072
 30
0.0
 11
223.311953209115
 21
157.3149925892099
 31
0.0
  0
LINE
  5
5AF
330
6C
100
AcDbEntity
  8
Spigoli visibili(ISO)
100
AcDbLine
 10
223.311953209115
 20
157.3149925892099
 30
0.0
 11
223.3119532091144
 21
159.3704289974946
 31
0.0
  0
ARC
  5
5B0
330
6C
100
AcDbEntity
  8
Spigoli visibili(ISO)
100
AcDbCircle
 10
218.5890312945953
 20
154.4260671936418
 30
0.0
 40
6.297229219360829
100
AcDbArc
 50
56.63298703078519
 51
123.3670129692485
  0
LINE
  5
5B1
330
6C
100
AcDbEntity
  8
Spigoli visibili(ISO)
100
AcDbLine
 10
222.0525073652422
 20
159.6852904584622
 30
0.0
 11
223.6268146700823
 21
159.6852904584627
 31
0.0
  0
LINE
  5
5B2
330
6C
100
AcDbEntity
  8
Spigoli visibili(ISO)
100
AcDbLine
 10
223.6268146700823
 20
159.6852904584627
 30
0.0
 11
223.6268146700832
 21
157.000131128242
 31
0.0
  0
LINE
  5
5B3
330
6C
100
AcDbEntity
  8
Spigoli visibili(ISO)
100
AcDbLine
 10
215.2212411661455
 20
159.3704289974921
 30
0.0
 11
213.8661093800732
 21
159.3704289974918
 31
0.0
  0
ARC
  5
5B4
330
6C
100
AcDbEntity
  8
Spigoli visibili(ISO)
100
AcDbCircle
 10
218.5890312945953
 20
154.4260671936418
 30
0.0
 40
5.982367758392786
100
AcDbArc
 50
55.73975587357729
 51
124.2602441264585
  0
LINE
  5
5B5
330
6C
100
AcDbEntity
  8
Spigoli visibili(ISO)
100
AcDbLine
 10
223.3119532091144
 20
159.3704289974946
 30
0.0
 11
221.956821423042
 21
159.3704289974942
 31
0.0
  0
LINE
  5
5B6
330
6C
100
AcDbEntity
  8
Spigoli visibili(ISO)
100
AcDbLine
 10
223.6268146700832
 20
157.000131128242
 30
0.0
 11
213.5512479191059
 21
157.000131128239
 31
0.0
  0
LINE
  5
5B7
330
6C
100
AcDbEntity
  8
Spigoli visibili(ISO)
100
AcDbLine
 10
213.5512479191059
 20
157.000131128239
 30
0.0
 11
213.5512479191051
 21
159.6852904584597
 31
0.0
  0
LINE
  5
5B8
330
6C
100
AcDbEntity
  8
Spigoli visibili(ISO)
100
AcDbLine
 10
213.5512479191051
 20
159.6852904584597
 30
0.0
 11
215.1255552239453
 21
159.6852904584602
 31
0.0
  0
LINE
  5
5B9
330
6C
100
AcDbEntity
  8
Spigoli visibili(ISO)
100
AcDbLine
 10
213.8661093800722
 20
162.6853112496486
 30
0.0
 11
213.8661093800728
 21
160.6298748413639
 31
0.0
  0
LINE
  5
5BA
330
6C
100
AcDbEntity
  8
Spigoli visibili(ISO)
100
AcDbLine
 10
213.8661093800728
 20
160.6298748413639
 30
0.0
 11
214.8531733047874
 21
160.6298748413641
 31
0.0
  0
ARC
  5
5BB
330
6C
100
AcDbEntity
  8
Spigoli visibili(ISO)
100
AcDbCircle
 10
218.5890312945953
 20
154.4260671936418
 30
0.0
 40
7.241813602264974
100
AcDbArc
 50
58.94415723482104
 51
121.0558427652147
  0
LINE
  5
5BC
330
6C
100
AcDbEntity
  8
Spigoli visibili(ISO)
100
AcDbLine
 10
223.6268146700814
 20
163.0001727106195
 30
0.0
 11
223.6268146700822
 21
160.3150133803988
 31
0.0
  0
LINE
  5
5BD
330
6C
100
AcDbEntity
  8
Spigoli visibili(ISO)
100
AcDbLine
 10
223.6268146700822
 20
160.3150133803988
 30
0.0
 11
222.2363561741889
 21
160.3150133803984
 31
0.0
  0
ARC
  5
5BE
330
6C
100
AcDbEntity
  8
Spigoli visibili(ISO)
100
AcDbCircle
 10
218.5890312945953
 20
154.4260671936418
 30
0.0
 40
6.926952141296896
100
AcDbArc
 50
58.227953771671
 51
121.7720462283645
  0
LINE
  5
5BF
330
6C
100
AcDbEntity
  8
Spigoli visibili(ISO)
100
AcDbLine
 10
223.3119532091135
 20
162.6853112496514
 30
0.0
 11
213.8661093800722
 21
162.6853112496486
 31
0.0
  0
LINE
  5
5C0
330
6C
100
AcDbEntity
  8
Spigoli visibili(ISO)
100
AcDbLine
 10
223.3119532091141
 20
160.6298748413667
 30
0.0
 11
223.3119532091135
 21
162.6853112496514
 31
0.0
  0
LINE
  5
5C1
330
6C
100
AcDbEntity
  8
Spigoli visibili(ISO)
100
AcDbLine
 10
222.3248892843994
 20
160.6298748413665
 30
0.0
 11
223.3119532091141
 21
160.6298748413667
 31
0.0
  0
LINE
  5
5C2
330
6C
100
AcDbEntity
  8
Spigoli visibili(ISO)
100
AcDbLine
 10
214.941706414998
 20
160.3150133803961
 30
0.0
 11
213.5512479191049
 21
160.3150133803958
 31
0.0
  0
LINE
  5
5C3
330
6C
100
AcDbEntity
  8
Spigoli visibili(ISO)
100
AcDbLine
 10
213.5512479191049
 20
160.3150133803958
 30
0.0
 11
213.5512479191041
 21
163.0001727106165
 31
0.0
  0
LINE
  5
5C4
330
6C
100
AcDbEntity
  8
Spigoli visibili(ISO)
100
AcDbLine
 10
213.5512479191041
 20
163.0001727106165
 30
0.0
 11
223.6268146700814
 21
163.0001727106195
 31
0.0
  0
LINE
  5
5C5
330
6C
100
AcDbEntity
  8
Spigoli visibili(ISO)
100
AcDbLine
 10
341.8390312945679
 20
246.8292069144928
 30
0.0
 11
341.8390312946123
 21
97.02292747286385
 31
0.0
  0
LINE
  5
5C6
330
6C
100
AcDbEntity
  8
Spigoli visibili(ISO)
100
AcDbLine
 10
325.3390312946123
 20
97.02292747285888
 30
0.0
 11
325.3390312945678
 21
246.8292069144878
 31
0.0
  0
LINE
  5
5C7
330
6C
100
AcDbEntity
  8
Spigoli visibili(ISO)
100
AcDbLine
 10
111.8390312945678
 20
246.8292069144246
 30
0.0
 11
111.8390312946123
 21
97.02292747279589
 31
0.0
  0
LINE
  5
5C8
330
6C
100
AcDbEntity
  8
Spigoli visibili(ISO)
100
AcDbLine
 10
95.33903129461231
 20
97.02292747279109
 30
0.0
 11
95.33903129456787
 21
246.8292069144196
 31
0.0
  0
LINE
  5
5C9
330
6C
100
AcDbEntity
  8
Spigoli visibili(ISO)
100
AcDbLine
 10
368.5890312946219
 20
64.92606719368632
 30
0.0
 11
368.5890312945583
 21
278.9260671936864
 31
0.0
  0
LINE
  5
5CA
330
6C
100
AcDbEntity
  8
Spigoli visibili(ISO)
100
AcDbLine
 10
68.58903129455834
 20
278.9260671935973
 30
0.0
 11
68.58903129462183
 21
64.92606719359734
 31
0.0
  0
LINE
  5
5CB
330
6C
100
AcDbEntity
  8
Spigoli visibili(ISO)
100
AcDbLine
 10
321.5859194553226
 20
80.99606649211498
 30
0.0
 11
333.589031294619
 21
74.06605864967886
 31
0.0
  0
LINE
  5
5CC
330
6C
100
AcDbEntity
  8
Spigoli visibili(ISO)
100
AcDbLine
 10
333.5890312946192
 20
74.06605864967886
 30
0.0
 11
345.5921431339115
 21
80.99606649212208
 31
0.0
  0
LINE
  5
5CD
330
6C
100
AcDbEntity
  8
Spigoli visibili(ISO)
100
AcDbLine
 10
345.5921431339115
 20
80.99606649212208
 30
0.0
 11
345.5921431339074
 21
94.85606314367414
 31
0.0
  0
LINE
  5
5CE
330
6C
100
AcDbEntity
  8
Spigoli visibili(ISO)
100
AcDbLine
 10
345.5921431339074
 20
94.85606314367414
 30
0.0
 11
333.589031294611
 21
101.7860709861102
 31
0.0
  0
LINE
  5
5CF
330
6C
100
AcDbEntity
  8
Spigoli visibili(ISO)
100
AcDbLine
 10
333.5890312946109
 20
101.7860709861102
 30
0.0
 11
321.5859194553185
 21
94.85606314366703
 31
0.0
  0
LINE
  5
5D0
330
6C
100
AcDbEntity
  8
Spigoli visibili(ISO)
100
AcDbLine
 10
321.5859194553185
 20
94.85606314366703
 30
0.0
 11
321.5859194553226
 21
80.99606649211498
 31
0.0
  0
CIRCLE
  5
5D1
330
6C
100
AcDbEntity
  8
Spigoli visibili(ISO)
100
AcDbCircle
 10
333.589031294615
 20
87.92606719367837
 30
0.0
 40
11.99999999999996
  0
LINE
  5
5D2
330
6C
100
AcDbEntity
  8
Spigoli visibili(ISO)
100
AcDbLine
 10
333.5890312945693
 20
242.0660754693175
 30
0.0
 11
345.5921431338617
 21
248.9960642784334
 31
0.0
  0
LINE
  5
5D3
330
6C
100
AcDbEntity
  8
Spigoli visibili(ISO)
100
AcDbLine
 10
321.5859194552728
 20
248.9960642784263
 30
0.0
 11
333.5890312945693
 21
242.0660754693175
 31
0.0
  0
LINE
  5
5D4
330
6C
100
AcDbEntity
  8
Spigoli visibili(ISO)
100
AcDbLine
 10
321.5859194552686
 20
262.8560603114455
 30
0.0
 11
321.5859194552728
 21
248.9960642784263
 31
0.0
  0
LINE
  5
5D5
330
6C
100
AcDbEntity
  8
Spigoli visibili(ISO)
100
AcDbLine
 10
333.589031294561
 20
269.7860681538887
 30
0.0
 11
321.5859194552686
 21
262.8560603114455
 31
0.0
  0
LINE
  5
5D6
330
6C
100
AcDbEntity
  8
Spigoli visibili(ISO)
100
AcDbLine
 10
345.5921431338575
 20
262.8560603114526
 30
0.0
 11
333.589031294561
 21
269.7860681538887
 31
0.0
  0
LINE
  5
5D7
330
6C
100
AcDbEntity
  8
Spigoli visibili(ISO)
100
AcDbLine
 10
345.5921431338617
 20
248.9960642784334
 30
0.0
 11
345.5921431338575
 21
262.8560603114526
 31
0.0
  0
CIRCLE
  5
5D8
330
6C
100
AcDbEntity
  8
Spigoli visibili(ISO)
100
AcDbCircle
 10
333.5890312945651
 20
255.9260671936783
 30
0.0
 40
12.0
  0
LINE
  5
5D9
330
6C
100
AcDbEntity
  8
Spigoli visibili(ISO)
100
AcDbLine
 10
115.5921431339073
 20
94.8560678951728
 30
0.0
 11
103.5890312946109
 21
101.7860757376089
 31
0.0
  0
LINE
  5
5DA
330
6C
100
AcDbEntity
  8
Spigoli visibili(ISO)
100
AcDbLine
 10
103.5890312946107
 20
101.7860757376089
 30
0.0
 11
91.58591945531846
 21
94.8560678951657
 31
0.0
  0
LINE
  5
5DB
330
6C
100
AcDbEntity
  8
Spigoli visibili(ISO)
100
AcDbLine
 10
91.58591945531846
 20
94.8560678951657
 30
0.0
 11
91.58591945532258
 21
80.99607124361362
 31
0.0
  0
LINE
  5
5DC
330
6C
100
AcDbEntity
  8
Spigoli visibili(ISO)
100
AcDbLine
 10
91.58591945532258
 20
80.99607124361362
 30
0.0
 11
103.589031294619
 21
74.0660634011775
 31
0.0
  0
LINE
  5
5DD
330
6C
100
AcDbEntity
  8
Spigoli visibili(ISO)
100
AcDbLine
 10
103.5890312946191
 20
74.0660634011775
 30
0.0
 11
115.5921431339114
 21
80.99607124362073
 31
0.0
  0
LINE
  5
5DE
330
6C
100
AcDbEntity
  8
Spigoli visibili(ISO)
100
AcDbLine
 10
115.5921431339114
 20
80.99607124362073
 30
0.0
 11
115.5921431339073
 21
94.8560678951728
 31
0.0
  0
CIRCLE
  5
5DF
330
6C
100
AcDbEntity
  8
Spigoli visibili(ISO)
100
AcDbCircle
 10
103.5890312946149
 20
87.92606719361003
 30
0.0
 40
11.99999999999997
  0
LINE
  5
5E0
330
6C
100
AcDbEntity
  8
Spigoli visibili(ISO)
100
AcDbLine
 10
115.5921431338575
 20
262.8560678951729
 30
0.0
 11
103.5890312945611
 21
269.786075737609
 31
0.0
  0
LINE
  5
5E1
330
6C
100
AcDbEntity
  8
Spigoli visibili(ISO)
100
AcDbLine
 10
103.5890312945609
 20
269.786075737609
 30
0.0
 11
91.58591945526865
 21
262.8560678951658
 31
0.0
  0
LINE
  5
5E2
330
6C
100
AcDbEntity
  8
Spigoli visibili(ISO)
100
AcDbLine
 10
91.58591945526865
 20
262.8560678951658
 30
0.0
 11
91.58591945527277
 21
248.9960712436137
 31
0.0
  0
LINE
  5
5E3
330
6C
100
AcDbEntity
  8
Spigoli visibili(ISO)
100
AcDbLine
 10
91.58591945527277
 20
248.9960712436137
 30
0.0
 11
103.5890312945692
 21
242.0660634011776
 31
0.0
  0
LINE
  5
5E4
330
6C
100
AcDbEntity
  8
Spigoli visibili(ISO)
100
AcDbLine
 10
103.5890312945693
 20
242.0660634011776
 30
0.0
 11
115.5921431338616
 21
248.9960712436208
 31
0.0
  0
LINE
  5
5E5
330
6C
100
AcDbEntity
  8
Spigoli visibili(ISO)
100
AcDbLine
 10
115.5921431338616
 20
248.9960712436208
 30
0.0
 11
115.5921431338575
 21
262.8560678951729
 31
0.0
  0
CIRCLE
  5
5E6
330
6C
100
AcDbEntity
  8
Spigoli visibili(ISO)
100
AcDbCircle
 10
103.5890312945651
 20
255.9260671936101
 30
0.0
 40
11.99999999999997
  0
LINE
  5
5E7
330
6C
100
AcDbEntity
  8
Spigoli visibili(ISO)
100
AcDbLine
 10
325.3390312946115
 20
99.92606719366982
 30
0.0
 11
330.3674167925337
 21
99.92606719367131
 31
0.0
  0
LINE
  5
5E8
330
6C
100
AcDbEntity
  8
Spigoli visibili(ISO)
100
AcDbLine
 10
336.8106457966892
 20
99.92606719367323
 30
0.0
 11
341.8390312946115
 21
99.92606719367472
 31
0.0
  0
LINE
  5
5E9
330
6C
100
AcDbEntity
  8
Spigoli visibili(ISO)
100
AcDbLine
 10
341.8390312945687
 20
243.9260671936744
 30
0.0
 11
336.8106457966461
 21
243.9260671936729
 31
0.0
  0
LINE
  5
5EA
330
6C
100
AcDbEntity
  8
Spigoli visibili(ISO)
100
AcDbLine
 10
330.3674167924913
 20
243.9260671936711
 30
0.0
 11
325.3390312945687
 21
243.9260671936696
 31
0.0
  0
LINE
  5
5EB
330
6C
100
AcDbEntity
  8
Spigoli visibili(ISO)
100
AcDbLine
 10
95.33903129461142
 20
99.92606719360182
 30
0.0
 11
100.3674167925333
 21
99.92606719360331
 31
0.0
  0
LINE
  5
5EC
330
6C
100
AcDbEntity
  8
Spigoli visibili(ISO)
100
AcDbLine
 10
106.8106457966894
 20
99.92606719360523
 30
0.0
 11
111.8390312946114
 21
99.92606719360672
 31
0.0
  0
LINE
  5
5ED
330
6C
100
AcDbEntity
  8
Spigoli visibili(ISO)
100
AcDbLine
 10
111.8390312945687
 20
243.9260671936066
 30
0.0
 11
106.8106457966468
 21
243.9260671936052
 31
0.0
  0
LINE
  5
5EE
330
6C
100
AcDbEntity
  8
Spigoli visibili(ISO)
100
AcDbLine
 10
100.3674167924906
 20
243.9260671936032
 30
0.0
 11
95.33903129456872
 21
243.9260671936017
 31
0.0
  0
ARC
  5
5EF
330
6C
100
AcDbEntity
  8
Spigoli visibili(ISO)
100
AcDbCircle
 10
333.589031294615
 20
87.92606719367032
 30
0.0
 40
19.25000000000001
100
AcDbArc
 50
64.6230664748647
 51
115.3769335251692
  0
ARC
  5
5F0
330
6C
100
AcDbEntity
  8
Spigoli visibili(ISO)
100
AcDbCircle
 10
333.589031294615
 20
87.92606719367061
 30
0.0
 40
18.25000000000003
100
AcDbArc
 50
63.12440594674741
 51
116.8755940532863
  0
ARC
  5
5F1
330
6C
100
AcDbEntity
  8
Spigoli visibili(ISO)
100
AcDbCircle
 10
103.5890312946149
 20
87.92606719360222
 30
0.0
 40
19.25
100
AcDbArc
 50
64.62306647486458
 51
115.3769335251691
  0
ARC
  5
5F2
330
6C
100
AcDbEntity
  8
Spigoli visibili(ISO)
100
AcDbCircle
 10
103.5890312946149
 20
87.9260671936025
 30
0.0
 40
18.25000000000002
100
AcDbArc
 50
63.12440594674739
 51
116.8755940532864
  0
ARC
  5
5F3
330
6C
100
AcDbEntity
  8
Spigoli visibili(ISO)
100
AcDbCircle
 10
333.5890312945651
 20
255.92606719367
 30
0.0
 40
19.24999999999999
100
AcDbArc
 50
244.6230664748647
 51
295.3769335251695
  0
ARC
  5
5F4
330
6C
100
AcDbEntity
  8
Spigoli visibili(ISO)
100
AcDbCircle
 10
333.5890312945651
 20
255.9260671936702
 30
0.0
 40
18.25
100
AcDbArc
 50
243.1244059467474
 51
296.8755940532867
  0
ARC
  5
5F5
330
6C
100
AcDbEntity
  8
Spigoli visibili(ISO)
100
AcDbCircle
 10
103.5890312945651
 20
255.9260671936022
 30
0.0
 40
19.24999999999999
100
AcDbArc
 50
244.6230664748647
 51
295.3769335251692
  0
ARC
  5
5F6
330
6C
100
AcDbEntity
  8
Spigoli visibili(ISO)
100
AcDbCircle
 10
103.5890312945651
 20
255.9260671936025
 30
0.0
 40
18.25000000000001
100
AcDbArc
 50
243.1244059467474
 51
296.8755940532864
  0
CIRCLE
  5
5F7
330
6C
100
AcDbEntity
  8
Spigoli visibili(ISO)
100
AcDbCircle
 10
333.589031294615
 20
87.92606719368222
 30
0.0
 40
7.999999999999996
  0
CIRCLE
  5
5F8
330
6C
100
AcDbEntity
  8
Spigoli visibili(ISO)
100
AcDbCircle
 10
333.589031294615
 20
87.92606719368251
 30
0.0
 40
6.999999999999993
  0
CIRCLE
  5
5F9
330
6C
100
AcDbEntity
  8
Spigoli visibili(ISO)
100
AcDbCircle
 10
103.589031294615
 20
87.92606719361419
 30
0.0
 40
7.999999999999997
  0
CIRCLE
  5
5FA
330
6C
100
AcDbEntity
  8
Spigoli visibili(ISO)
100
AcDbCircle
 10
103.589031294615
 20
87.92606719361449
 30
0.0
 40
6.999999999999993
  0
CIRCLE
  5
5FB
330
6C
100
AcDbEntity
  8
Spigoli visibili(ISO)
100
AcDbCircle
 10
333.5890312945651
 20
255.9260671936821
 30
0.0
 40
7.999999999999996
  0
CIRCLE
  5
5FC
330
6C
100
AcDbEntity
  8
Spigoli visibili(ISO)
100
AcDbCircle
 10
333.5890312945651
 20
255.9260671936824
 30
0.0
 40
6.999999999999993
  0
CIRCLE
  5
5FD
330
6C
100
AcDbEntity
  8
Spigoli visibili(ISO)
100
AcDbCircle
 10
103.5890312945651
 20
255.9260671936141
 30
0.0
 40
7.999999999999996
  0
CIRCLE
  5
5FE
330
6C
100
AcDbEntity
  8
Spigoli visibili(ISO)
100
AcDbCircle
 10
103.5890312945651
 20
255.9260671936144
 30
0.0
 40
6.999999999999993
  0
ENDSEC
  0
SECTION
  2
OBJECTS
  0
DICTIONARY
  5
C
330
0
100
AcDbDictionary
281
     1
  3
ACAD_CIP_PREVIOUS_PRODUCT_INFO
350
5FF
  3
ACAD_COLOR
350
63
  3
ACAD_GROUP
350
D
  3
ACAD_LAYOUT
350
62
  3
ACAD_MATERIAL
350
10
  3
ACAD_MLEADERSTYLE
350
66
  3
ACAD_MLINESTYLE
350
5F
  3
ACAD_PLOTSETTINGS
350
61
  3
ACAD_PLOTSTYLENAME
350
E
  3
ACAD_SCALELIST
350
42
  3
ACAD_TABLESTYLE
350
64
  3
ACAD_VISUALSTYLE
350
29
  3
ACDB_RECOMPOSE_DATA
350
684
  3
AcDbVariableDictionary
350
602
  3
AcmDictionary
350
636
  3
AMG
350
60D
  3
AMGSNAPSETTINGS
350
676
  3
DWGPROPS
350
685
  0
XRECORD
  5
5FF
102
{ACAD_REACTORS
330
C
102
}
330
C
100
AcDbXrecord
280
     1
300
AMECH_PP
300
2012
300
PDSP_F_S
  0
DICTIONARY
  5
63
102
{ACAD_REACTORS
330
C
102
}
330
C
100
AcDbDictionary
281
     1
  0
DICTIONARY
  5
D
102
{ACAD_REACTORS
330
C
102
}
330
C
100
AcDbDictionary
281
     1
  0
DICTIONARY
  5
62
102
{ACAD_REACTORS
330
C
102
}
330
C
100
AcDbDictionary
281
     1
  3
Layout1
350
6B
  3
Layout2
350
73
  3
Model
350
6F
  0
DICTIONARY
  5
10
102
{ACAD_REACTORS
330
C
102
}
330
C
100
AcDbDictionary
281
     1
  3
ByBlock
350
19
  3
ByLayer
350
11
  3
Global
350
21
  0
DICTIONARY
  5
66
102
{ACAD_REACTORS
330
C
102
}
330
C
100
AcDbDictionary
281
     1
  3
Standard
350
67
  0
DICTIONARY
  5
5F
102
{ACAD_REACTORS
330
C
102
}
330
C
100
AcDbDictionary
281
     1
  3
Standard
350
60
  0
DICTIONARY
  5
61
102
{ACAD_REACTORS
330
C
102
}
330
C
100
AcDbDictionary
281
     1
  0
ACDBDICTIONARYWDFLT
  5
E
102
{ACAD_REACTORS
330
C
102
}
330
C
100
AcDbDictionary
281
     1
  3
Normal
350
F
100
AcDbDictionaryWithDefault
340
F
  0
DICTIONARY
  5
42
102
{ACAD_REACTORS
330
C
102
}
330
C
100
AcDbDictionary
281
     1
  3
A0
350
43
  3
A1
350
44
  3
A2
350
45
  3
A3
350
46
  3
A4
350
47
  3
A5
350
48
  3
A6
350
49
  3
A7
350
4A
  3
A8
350
4B
  3
A9
350
4C
  3
B0
350
4D
  3
B1
350
4E
  3
B2
350
4F
  3
B3
350
50
  3
B4
350
51
  3
B5
350
52
  3
B6
350
53
  0
DICTIONARY
  5
64
102
{ACAD_REACTORS
330
C
102
}
330
C
100
AcDbDictionary
281
     1
  3
Standard
350
65
  0
DICTIONARY
  5
29
102
{ACAD_REACTORS
330
C
102
}
330
C
100
AcDbDictionary
281
     1
  3
2dWireframe
350
2F
  3
Basic
350
2E
  3
Brighten
350
35
  3
ColorChange
350
39
  3
Conceptual
350
32
  3
Dim
350
34
  3
EdgeColorOff
350
41
  3
Facepattern
350
38
  3
Flat
350
2A
  3
FlatWithEdges
350
2B
  3
Gouraud
350
2C
  3
GouraudWithEdges
350
2D
  3
Hidden
350
31
  3
JitterOff
350
3F
  3
Linepattern
350
37
  3
OverhangOff
350
40
  3
Realistic
350
33
  3
Shaded
350
3E
  3
Shaded with edges
350
3D
  3
Shades of Gray
350
3A
  3
Sketchy
350
3B
  3
Thicken
350
36
  3
Wireframe
350
30
  3
X-Ray
350
3C
  0
XRECORD
  5
684
102
{ACAD_REACTORS
330
C
102
}
330
C
100
AcDbXrecord
280
     1
 90
        1
330
65
  0
DICTIONARY
  5
602
102
{ACAD_REACTORS
330
C
102
}
330
C
100
AcDbDictionary
281
     1
  3
CANNOSCALE
350
605
  3
CMLEADERSTYLE
350
604
  3
CTABLESTYLE
350
603
  3
DIMASSOC
350
67E
  3
HIDETEXT
350
67D
  3
INDEXCTL
350
67C
  3
LAYEREVAL
350
679
  3
LAYERNOTIFY
350
67A
  3
LIGHTINGUNITS
350
678
  3
MSLTSCALE
350
677
  3
SORTENTS
350
67B
  3
XCLIPFRAME
350
67F
  0
DICTIONARY
  5
636
102
{ACAD_REACTORS
330
C
102
}
330
C
100
AcDbDictionary
281
     1
  3
AcmStdDictionary
350
63F
  0
DICTIONARY
  5
60D
102
{ACAD_REACTORS
330
C
102
}
330
C
100
AcDbDictionary
281
     1
  0
DICTIONARY
  5
676
102
{ACAD_REACTORS
330
C
102
}
330
C
100
AcDbDictionary
281
     1
  0
XRECORD
  5
685
102
{ACAD_REACTORS
330
C
102
}
330
C
100
AcDbXrecord
280
     1
  1
DWGPROPS COOKIE
  2

  3

  4
PaoLor
  6

  7

  8
amenegon
  9

300
Responsabile=
301
Società=
302
Categoria=
303
Numero parte=256-G
304
Descrizione=
305
Progetto=
306
Progettista=PaoLor
307
Ingegnere=
308
Autorità=
309
Centro gestione costi=
 40
0.0001956597222222
 41
2456401.361177662
 42
2456401.366185255
  1

 90
       16
300
Fornitore=
300
Stato utente=
300
Stato progetto=In corso
300
Verificato da=
300
Progett. approvata da=
300
Prod. approvata da=
  0
LAYOUT
  5
6B
102
{ACAD_XDICTIONARY
360
6BB
102
}
102
{ACAD_REACTORS
330
62
102
}
330
62
100
AcDbPlotSettings
  1

  2

  4

  6

 40
0.0
 41
0.0
 42
0.0
 43
0.0
 44
0.0
 45
0.0
 46
0.0
 47
0.0
 48
0.0
 49
0.0
140
0.0
141
0.0
142
1.0
143
1.0
 70
   688
 72
     0
 73
     0
 74
     5
  7

 75
    16
147
1.0
148
0.0
149
0.0
100
AcDbLayout
  1
Layout1
 70
     1
 71
     1
 10
0.0
 20
0.0
 11
840.0
 21
594.0
 12
0.0
 22
0.0
 32
0.0
 14
0.0
 24
0.0
 34
0.0
 15
840.0
 25
594.0
 35
0.0
146
0.0
 13
0.0
 23
0.0
 33
0.0
 16
1.0
 26
0.0
 36
0.0
 17
0.0
 27
1.0
 37
0.0
 76
     0
330
68
  0
LAYOUT
  5
73
102
{ACAD_XDICTIONARY
360
6BF
102
}
102
{ACAD_REACTORS
330
62
102
}
330
62
100
AcDbPlotSettings
  1

  2

  4

  6

 40
0.0
 41
0.0
 42
0.0
 43
0.0
 44
0.0
 45
0.0
 46
0.0
 47
0.0
 48
0.0
 49
0.0
140
0.0
141
0.0
142
1.0
143
1.0
 70
   688
 72
     0
 73
     0
 74
     5
  7

 75
    16
147
1.0
148
0.0
149
0.0
100
AcDbLayout
  1
Layout2
 70
     1
 71
     2
 10
0.0
 20
0.0
 11
12.0
 21
9.0
 12
0.0
 22
0.0
 32
0.0
 14
0.0
 24
0.0
 34
0.0
 15
0.0
 25
0.0
 35
0.0
146
0.0
 13
0.0
 23
0.0
 33
0.0
 16
1.0
 26
0.0
 36
0.0
 17
0.0
 27
1.0
 37
0.0
 76
     0
330
70
  0
LAYOUT
  5
6F
102
{ACAD_XDICTIONARY
360
6BD
102
}
102
{ACAD_REACTORS
330
62
102
}
330
62
100
AcDbPlotSettings
  1

  2

  4

  6

 40
0.0
 41
0.0
 42
0.0
 43
0.0
 44
0.0
 45
0.0
 46
0.0
 47
0.0
 48
0.0
 49
0.0
140
0.0
141
0.0
142
1.0
143
1.0
 70
  1712
 72
     0
 73
     0
 74
     0
  7

 75
     0
147
1.0
148
0.0
149
0.0
100
AcDbLayout
  1
Model
 70
     1
 71
     0
 10
0.0
 20
0.0
 11
12.0
 21
9.0
 12
0.0
 22
0.0
 32
0.0
 14
0.0
 24
0.0
 34
0.0
 15
0.0
 25
0.0
 35
0.0
146
0.0
 13
0.0
 23
0.0
 33
0.0
 16
1.0
 26
0.0
 36
0.0
 17
0.0
 27
1.0
 37
0.0
 76
     0
330
6C
331
57
  0
MATERIAL
  5
19
102
{ACAD_XDICTIONARY
360
1A
102
}
102
{ACAD_REACTORS
330
10
102
}
330
10
100
AcDbMaterial
  1
ByBlock
 72
     0
 43
0.0208333333333333
 43
0.0
 43
0.0
 43
0.0
 43
0.0
 43
0.0208333333333333
 43
0.0
 43
0.0
 43
0.0
 43
0.0
 43
1.0
 43
0.0
 43
0.0
 43
0.0
 43
0.0
 43
1.0
 77
     0
 47
0.0208333333333333
 47
0.0
 47
0.0
 47
0.0
 47
0.0
 47
0.0208333333333333
 47
0.0
 47
0.0
 47
0.0
 47
0.0
 47
1.0
 47
0.0
 47
0.0
 47
0.0
 47
0.0
 47
1.0
171
     0
 49
0.0208333333333333
 49
0.0
 49
0.0
 49
0.0
 49
0.0
 49
0.0208333333333333
 49
0.0
 49
0.0
 49
0.0
 49
0.0
 49
1.0
 49
0.0
 49
0.0
 49
0.0
 49
0.0
 49
1.0
175
     0
142
0.0208333333333333
142
0.0
142
0.0
142
0.0
142
0.0
142
0.0208333333333333
142
0.0
142
0.0
142
0.0
142
0.0
142
1.0
142
0.0
142
0.0
142
0.0
142
0.0
142
1.0
179
     0
144
0.0208333333333333
144
0.0
144
0.0
144
0.0
144
0.0
144
0.0208333333333333
144
0.0
144
0.0
144
0.0
144
0.0
144
1.0
144
0.0
144
0.0
144
0.0
144
0.0
144
1.0
147
0.0208333333333333
147
0.0
147
0.0
147
0.0
147
0.0
147
0.0208333333333333
147
0.0
147
0.0
147
0.0
147
0.0
147
1.0
147
0.0
147
0.0
147
0.0
147
0.0
147
1.0
  0
MATERIAL
  5
11
102
{ACAD_XDICTIONARY
360
12
102
}
102
{ACAD_REACTORS
330
10
102
}
330
10
100
AcDbMaterial
  1
ByLayer
 72
     0
 43
0.0208333333333333
 43
0.0
 43
0.0
 43
0.0
 43
0.0
 43
0.0208333333333333
 43
0.0
 43
0.0
 43
0.0
 43
0.0
 43
1.0
 43
0.0
 43
0.0
 43
0.0
 43
0.0
 43
1.0
 77
     0
 47
0.0208333333333333
 47
0.0
 47
0.0
 47
0.0
 47
0.0
 47
0.0208333333333333
 47
0.0
 47
0.0
 47
0.0
 47
0.0
 47
1.0
 47
0.0
 47
0.0
 47
0.0
 47
0.0
 47
1.0
171
     0
 49
0.0208333333333333
 49
0.0
 49
0.0
 49
0.0
 49
0.0
 49
0.0208333333333333
 49
0.0
 49
0.0
 49
0.0
 49
0.0
 49
1.0
 49
0.0
 49
0.0
 49
0.0
 49
0.0
 49
1.0
175
     0
142
0.0208333333333333
142
0.0
142
0.0
142
0.0
142
0.0
142
0.0208333333333333
142
0.0
142
0.0
142
0.0
142
0.0
142
1.0
142
0.0
142
0.0
142
0.0
142
0.0
142
1.0
179
     0
144
0.0208333333333333
144
0.0
144
0.0
144
0.0
144
0.0
144
0.0208333333333333
144
0.0
144
0.0
144
0.0
144
0.0
144
1.0
144
0.0
144
0.0
144
0.0
144
0.0
144
1.0
147
0.0208333333333333
147
0.0
147
0.0
147
0.0
147
0.0
147
0.0208333333333333
147
0.0
147
0.0
147
0.0
147
0.0
147
1.0
147
0.0
147
0.0
147
0.0
147
0.0
147
1.0
  0
MATERIAL
  5
21
102
{ACAD_XDICTIONARY
360
22
102
}
102
{ACAD_REACTORS
330
10
102
}
330
10
100
AcDbMaterial
  1
Global
 72
     0
 43
0.0208333333333333
 43
0.0
 43
0.0
 43
0.0
 43
0.0
 43
0.0208333333333333
 43
0.0
 43
0.0
 43
0.0
 43
0.0
 43
1.0
 43
0.0
 43
0.0
 43
0.0
 43
0.0
 43
1.0
 77
     0
 47
0.0208333333333333
 47
0.0
 47
0.0
 47
0.0
 47
0.0
 47
0.0208333333333333
 47
0.0
 47
0.0
 47
0.0
 47
0.0
 47
1.0
 47
0.0
 47
0.0
 47
0.0
 47
0.0
 47
1.0
171
     0
 49
0.0208333333333333
 49
0.0
 49
0.0
 49
0.0
 49
0.0
 49
0.0208333333333333
 49
0.0
 49
0.0
 49
0.0
 49
0.0
 49
1.0
 49
0.0
 49
0.0
 49
0.0
 49
0.0
 49
1.0
175
     0
142
0.0208333333333333
142
0.0
142
0.0
142
0.0
142
0.0
142
0.0208333333333333
142
0.0
142
0.0
142
0.0
142
0.0
142
1.0
142
0.0
142
0.0
142
0.0
142
0.0
142
1.0
179
     0
144
0.0208333333333333
144
0.0
144
0.0
144
0.0
144
0.0
144
0.0208333333333333
144
0.0
144
0.0
144
0.0
144
0.0
144
1.0
144
0.0
144
0.0
144
0.0
144
0.0
144
1.0
147
0.0208333333333333
147
0.0
147
0.0
147
0.0
147
0.0
147
0.0208333333333333
147
0.0
147
0.0
147
0.0
147
0.0
147
1.0
147
0.0
147
0.0
147
0.0
147
0.0
147
1.0
  0
MLEADERSTYLE
  5
67
102
{ACAD_XDICTIONARY
360
682
102
}
102
{ACAD_REACTORS
330
66
102
}
330
66
100
AcDbMLeaderStyle
170
     2
171
     1
172
     0
 90
        2
 40
0.0
 41
0.0
173
     1
 91
-1056964608
340
5B
 92
       -2
290
     1
 42
0.09
291
     1
 43
0.36
  3
Standard
 44
0.18
300

342
55
174
     1
178
     6
175
     1
176
     0
 93
-1056964608
 45
0.18
292
     0
297
     0
 46
0.18
 94
-1056964608
 47
1.0
 49
1.0
140
1.0
293
     1
141
0.0
294
     1
177
     0
142
1.0
295
     0
296
     0
143
0.125
1001
ACAD_MLEADERVER
1070
     2
  0
MLINESTYLE
  5
60
102
{ACAD_REACTORS
330
5F
102
}
330
5F
100
AcDbMlineStyle
  2
STANDARD
 70
     0
  3

 62
   256
 51
90.0
 52
90.0
 71
     2
 49
0.5
 62
   256
  6
BYLAYER
 49
-0.5
 62
   256
  6
BYLAYER
  0
ACDBPLACEHOLDER
  5
F
102
{ACAD_REACTORS
330
E
102
}
330
E
  0
SCALE
  5
43
102
{ACAD_REACTORS
330
42
102
}
330
42
100
AcDbScale
 70
     0
300
1:1
140
1.0
141
1.0
290
     1
  0
SCALE
  5
44
102
{ACAD_REACTORS
330
42
102
}
330
42
100
AcDbScale
 70
     0
300
1/128" = 1'-0"
140
0.0078125
141
12.0
290
     0
  0
SCALE
  5
45
102
{ACAD_REACTORS
330
42
102
}
330
42
100
AcDbScale
 70
     0
300
1/64" = 1'-0"
140
0.015625
141
12.0
290
     0
  0
SCALE
  5
46
102
{ACAD_REACTORS
330
42
102
}
330
42
100
AcDbScale
 70
     0
300
1/32" = 1'-0"
140
0.03125
141
12.0
290
     0
  0
SCALE
  5
47
102
{ACAD_REACTORS
330
42
102
}
330
42
100
AcDbScale
 70
     0
300
1/16" = 1'-0"
140
0.0625
141
12.0
290
     0
  0
SCALE
  5
48
102
{ACAD_REACTORS
330
42
102
}
330
42
100
AcDbScale
 70
     0
300
3/32" = 1'-0"
140
0.09375
141
12.0
290
     0
  0
SCALE
  5
49
102
{ACAD_REACTORS
330
42
102
}
330
42
100
AcDbScale
 70
     0
300
1/8" = 1'-0"
140
0.125
141
12.0
290
     0
  0
SCALE
  5
4A
102
{ACAD_REACTORS
330
42
102
}
330
42
100
AcDbScale
 70
     0
300
3/16" = 1'-0"
140
0.1875
141
12.0
290
     0
  0
SCALE
  5
4B
102
{ACAD_REACTORS
330
42
102
}
330
42
100
AcDbScale
 70
     0
300
1/4" = 1'-0"
140
0.25
141
12.0
290
     0
  0
SCALE
  5
4C
102
{ACAD_REACTORS
330
42
102
}
330
42
100
AcDbScale
 70
     0
300
3/8" = 1'-0"
140
0.375
141
12.0
290
     0
  0
SCALE
  5
4D
102
{ACAD_REACTORS
330
42
102
}
330
42
100
AcDbScale
 70
     0
300
1/2" = 1'-0"
140
0.5
141
12.0
290
     0
  0
SCALE
  5
4E
102
{ACAD_REACTORS
330
42
102
}
330
42
100
AcDbScale
 70
     0
300
3/4" = 1'-0"
140
0.75
141
12.0
290
     0
  0
SCALE
  5
4F
102
{ACAD_REACTORS
330
42
102
}
330
42
100
AcDbScale
 70
     0
300
1" = 1'-0"
140
1.0
141
12.0
290
     0
  0
SCALE
  5
50
102
{ACAD_REACTORS
330
42
102
}
330
42
100
AcDbScale
 70
     0
300
1-1/2" = 1'-0"
140
1.5
141
12.0
290
     0
  0
SCALE
  5
51
102
{ACAD_REACTORS
330
42
102
}
330
42
100
AcDbScale
 70
     0
300
3" = 1'-0"
140
3.0
141
12.0
290
     0
  0
SCALE
  5
52
102
{ACAD_REACTORS
330
42
102
}
330
42
100
AcDbScale
 70
     0
300
6" = 1'-0"
140
6.0
141
12.0
290
     0
  0
SCALE
  5
53
102
{ACAD_REACTORS
330
42
102
}
330
42
100
AcDbScale
 70
     0
300
1'-0" = 1'-0"
140
12.0
141
12.0
290
     0
  0
TABLESTYLE
  5
65
102
{ACAD_XDICTIONARY
360
680
102
}
102
{ACAD_REACTORS
330
64
102
}
330
64
100
AcDbTableStyle
  3
Standard
 70
     0
 71
     0
 40
0.06
 41
0.06
280
     0
281
     0
  7
Standard
140
0.18
170
     2
 62
     0
 63
     7
283
     0
274
    -2
284
     1
 64
     0
275
    -2
285
     1
 65
     0
276
    -2
286
     1
 66
     0
277
    -2
287
     1
 67
     0
278
    -2
288
     1
 68
     0
279
    -2
289
     1
 69
     0
  7
Standard
140
0.25
170
     5
 62
     0
 63
     7
283
     0
274
    -2
284
     1
 64
     0
275
    -2
285
     1
 65
     0
276
    -2
286
     1
 66
     0
277
    -2
287
     1
 67
     0
278
    -2
288
     1
 68
     0
279
    -2
289
     1
 69
     0
  7
Standard
140
0.18
170
     5
 62
     0
 63
     7
283
     0
274
    -2
284
     1
 64
     0
275
    -2
285
     1
 65
     0
276
    -2
286
     1
 66
     0
277
    -2
287
     1
 67
     0
278
    -2
288
     1
 68
     0
279
    -2
289
     1
 69
     0
  0
VISUALSTYLE
  5
2F
102
{ACAD_XDICTIONARY
360
693
102
}
102
{ACAD_REACTORS
330
29
102
}
330
29
100
AcDbVisualStyle
  2
2dWireframe
 70
     4
 71
     0
 72
     2
 73
     0
 90
        0
 40
-0.6
 41
-30.0
 62
     5
 63
     7
 74
     1
 91
        4
 64
     7
 65
   257
 75
     1
175
     1
 42
1.0
 92
        0
 66
   257
 43
1.0
 76
     1
 77
     6
 78
     2
 67
     7
 79
     5
170
     0
171
     0
290
     0
174
     0
 93
        1
 44
0.0
173
     0
291
     0
 45
0.0
1001
ACAD
1000
AcDbSavedByObjectVersion
1070
     0
  0
VISUALSTYLE
  5
2E
102
{ACAD_XDICTIONARY
360
691
102
}
102
{ACAD_REACTORS
330
29
102
}
330
29
100
AcDbVisualStyle
  2
Basic
 70
     7
 71
     1
 72
     0
 73
     1
 90
        0
 40
-0.6
 41
-30.0
 62
     5
 63
     7
 74
     0
 91
        4
 64
     7
 65
   257
 75
     1
175
     1
 42
1.0
 92
        8
 66
     7
 43
1.0
 76
     1
 77
     6
 78
     2
 67
     7
 79
     5
170
     0
171
     0
290
     0
174
     0
 93
        1
 44
0.0
173
     0
291
     1
 45
0.0
1001
ACAD
1000
AcDbSavedByObjectVersion
1070
     0
  0
VISUALSTYLE
  5
35
102
{ACAD_XDICTIONARY
360
69F
102
}
102
{ACAD_REACTORS
330
29
102
}
330
29
100
AcDbVisualStyle
  2
Brighten
 70
    12
 71
     2
 72
     2
 73
     0
 90
        0
 40
-0.6
 41
-30.0
 62
     5
 63
     7
 74
     1
 91
        4
 64
     7
 65
   257
 75
     1
175
     1
 42
1.0
 92
        8
 66
     7
 43
1.0
 76
     1
 77
     6
 78
     2
 67
     7
 79
     5
170
     0
171
     0
290
     0
174
     0
 93
        1
 44
50.0
173
     0
291
     1
 45
0.0
1001
ACAD
1000
AcDbSavedByObjectVersion
1070
     0
  0
VISUALSTYLE
  5
39
102
{ACAD_XDICTIONARY
360
6A7
102
}
102
{ACAD_REACTORS
330
29
102
}
330
29
100
AcDbVisualStyle
  2
ColorChange
 70
    16
 71
     2
 72
     2
 73
     3
 90
        0
 40
-0.6
 41
-30.0
 62
     5
 63
     8
 74
     1
 91
        4
 64
     7
 65
   257
 75
     1
175
     1
 42
1.0
 92
        8
 66
     8
 43
1.0
 76
     1
 77
     6
 78
     2
 67
     7
 79
     5
170
     0
171
     0
290
     0
174
     0
 93
        1
 44
0.0
173
     0
291
     1
 45
0.0
1001
ACAD
1000
AcDbSavedByObjectVersion
1070
     0
  0
VISUALSTYLE
  5
32
102
{ACAD_XDICTIONARY
360
699
102
}
102
{ACAD_REACTORS
330
29
102
}
330
29
100
AcDbVisualStyle
  2
Conceptual
 70
     9
 71
     3
 72
     2
 73
     0
 90
        0
 40
-0.6
 41
-30.0
 62
     5
 63
     7
 74
     2
 91
        2
 64
     7
 65
   257
 75
     1
175
     1
 42
179.0
 92
        8
 66
     7
 43
1.0
 76
     1
 77
     6
 78
     2
 67
     7
 79
     3
170
     0
171
     0
290
     0
174
     0
 93
        1
 44
0.0
173
     0
291
     0
 45
0.0
1001
ACAD
1000
AcDbSavedByObjectVersion
1070
     0
  0
VISUALSTYLE
  5
34
102
{ACAD_XDICTIONARY
360
69D
102
}
102
{ACAD_REACTORS
330
29
102
}
330
29
100
AcDbVisualStyle
  2
Dim
 70
    11
 71
     2
 72
     2
 73
     0
 90
        0
 40
-0.6
 41
-30.0
 62
     5
 63
     7
 74
     1
 91
        4
 64
     7
 65
   257
 75
     1
175
     1
 42
1.0
 92
        8
 66
     7
 43
1.0
 76
     1
 77
     6
 78
     2
 67
     7
 79
     5
170
     0
171
     0
290
     0
174
     0
 93
        1
 44
-50.0
173
     0
291
     1
 45
0.0
1001
ACAD
1000
AcDbSavedByObjectVersion
1070
     0
  0
VISUALSTYLE
  5
41
102
{ACAD_XDICTIONARY
360
6B7
102
}
102
{ACAD_REACTORS
330
29
102
}
330
29
100
AcDbVisualStyle
  2
EdgeColorOff
 70
    22
 71
     2
 72
     2
 73
     0
 90
        0
 40
-0.6
 41
-30.0
 62
     5
 63
     7
 74
     1
 91
        4
 64
     7
 65
   257
 75
     1
175
     1
 42
1.0
 92
        8
 66
     7
 43
1.0
 76
     1
 77
     6
 78
     2
 67
     7
 79
     5
170
     0
171
     0
290
     0
174
     0
 93
        1
 44
0.0
173
     0
291
     1
 45
0.0
1001
ACAD
1000
AcDbSavedByObjectVersion
1070
     0
  0
VISUALSTYLE
  5
38
102
{ACAD_XDICTIONARY
360
6A5
102
}
102
{ACAD_REACTORS
330
29
102
}
330
29
100
AcDbVisualStyle
  2
Facepattern
 70
    15
 71
     2
 72
     2
 73
     0
 90
        0
 40
-0.6
 41
-30.0
 62
     5
 63
     7
 74
     1
 91
        4
 64
     7
 65
   257
 75
     1
175
     1
 42
1.0
 92
        8
 66
     7
 43
1.0
 76
     1
 77
     6
 78
     2
 67
     7
 79
     5
170
     0
171
     0
290
     0
174
     0
 93
        1
 44
0.0
173
     0
291
     1
 45
0.0
1001
ACAD
1000
AcDbSavedByObjectVersion
1070
     0
  0
VISUALSTYLE
  5
2A
102
{ACAD_XDICTIONARY
360
689
102
}
102
{ACAD_REACTORS
330
29
102
}
330
29
100
AcDbVisualStyle
  2
Flat
 70
     0
 71
     2
 72
     1
 73
     1
 90
        2
 40
-0.6
 41
30.0
 62
     5
 63
     7
 74
     0
 91
        0
 64
     7
 65
   257
 75
     1
175
     1
 42
1.0
 92
        8
 66
     7
 43
1.0
 76
     1
 77
     6
 78
     2
 67
     7
 79
     5
170
     0
171
     0
290
     0
174
     0
 93
       13
 44
0.0
173
     0
291
     1
 45
0.0
1001
ACAD
1000
AcDbSavedByObjectVersion
1070
     0
  0
VISUALSTYLE
  5
2B
102
{ACAD_XDICTIONARY
360
68B
102
}
102
{ACAD_REACTORS
330
29
102
}
330
29
100
AcDbVisualStyle
  2
FlatWithEdges
 70
     1
 71
     2
 72
     1
 73
     1
 90
        2
 40
-0.6
 41
30.0
 62
     5
 63
     7
 74
     1
 91
        0
 64
     7
 65
   257
 75
     1
175
     1
 42
1.0
 92
        0
 66
   257
 43
1.0
 76
     1
 77
     6
 78
     2
 67
     7
 79
     5
170
     0
171
     0
290
     0
174
     0
 93
       13
 44
0.0
173
     0
291
     1
 45
0.0
1001
ACAD
1000
AcDbSavedByObjectVersion
1070
     0
  0
VISUALSTYLE
  5
2C
102
{ACAD_XDICTIONARY
360
68D
102
}
102
{ACAD_REACTORS
330
29
102
}
330
29
100
AcDbVisualStyle
  2
Gouraud
 70
     2
 71
     2
 72
     2
 73
     1
 90
        2
 40
-0.6
 41
30.0
 62
     5
 63
     7
 74
     0
 91
        0
 64
     7
 65
   257
 75
     1
175
     1
 42
1.0
 92
        0
 66
     7
 43
1.0
 76
     1
 77
     6
 78
     2
 67
     7
 79
     5
170
     0
171
     0
290
     0
174
     0
 93
       13
 44
0.0
173
     0
291
     1
 45
0.0
1001
ACAD
1000
AcDbSavedByObjectVersion
1070
     0
  0
VISUALSTYLE
  5
2D
102
{ACAD_XDICTIONARY
360
68F
102
}
102
{ACAD_REACTORS
330
29
102
}
330
29
100
AcDbVisualStyle
  2
GouraudWithEdges
 70
     3
 71
     2
 72
     2
 73
     1
 90
        2
 40
-0.6
 41
30.0
 62
     5
 63
     7
 74
     1
 91
        0
 64
     7
 65
   257
 75
     1
175
     1
 42
1.0
 92
        0
 66
   257
 43
1.0
 76
     1
 77
     6
 78
     2
 67
     7
 79
     5
170
     0
171
     0
290
     0
174
     0
 93
       13
 44
0.0
173
     0
291
     1
 45
0.0
1001
ACAD
1000
AcDbSavedByObjectVersion
1070
     0
  0
VISUALSTYLE
  5
31
102
{ACAD_XDICTIONARY
360
697
102
}
102
{ACAD_REACTORS
330
29
102
}
330
29
100
AcDbVisualStyle
  2
Hidden
 70
     6
 71
     1
 72
     2
 73
     2
 90
        0
 40
-0.6
 41
-30.0
 62
     5
 63
     7
 74
     2
 91
        2
 64
     7
 65
   257
 75
     2
175
     1
 42
40.0
 92
        0
 66
   257
 43
1.0
 76
     1
 77
     6
 78
     2
 67
     7
 79
     3
170
     0
171
     0
290
     0
174
     0
 93
        1
 44
0.0
173
     0
291
     0
 45
0.0
1001
ACAD
1000
AcDbSavedByObjectVersion
1070
     0
  0
VISUALSTYLE
  5
3F
102
{ACAD_XDICTIONARY
360
6B3
102
}
102
{ACAD_REACTORS
330
29
102
}
330
29
100
AcDbVisualStyle
  2
JitterOff
 70
    20
 71
     2
 72
     2
 73
     0
 90
        0
 40
-0.6
 41
-30.0
 62
     5
 63
     7
 74
     1
 91
        4
 64
     7
 65
   257
 75
     1
175
     1
 42
1.0
 92
       10
 66
     7
 43
1.0
 76
     1
 77
     6
 78
     2
 67
     7
 79
     5
170
     0
171
     0
290
     0
174
     0
 93
        1
 44
0.0
173
     0
291
     1
 45
0.0
1001
ACAD
1000
AcDbSavedByObjectVersion
1070
     0
  0
VISUALSTYLE
  5
37
102
{ACAD_XDICTIONARY
360
6A3
102
}
102
{ACAD_REACTORS
330
29
102
}
330
29
100
AcDbVisualStyle
  2
Linepattern
 70
    14
 71
     2
 72
     2
 73
     0
 90
        0
 40
-0.6
 41
-30.0
 62
     5
 63
     7
 74
     1
 91
        4
 64
     7
 65
   257
 75
     7
175
     7
 42
1.0
 92
        8
 66
     7
 43
1.0
 76
     1
 77
     6
 78
     2
 67
     7
 79
     5
170
     0
171
     0
290
     0
174
     0
 93
        1
 44
0.0
173
     0
291
     1
 45
0.0
1001
ACAD
1000
AcDbSavedByObjectVersion
1070
     0
  0
VISUALSTYLE
  5
40
102
{ACAD_XDICTIONARY
360
6B5
102
}
102
{ACAD_REACTORS
330
29
102
}
330
29
100
AcDbVisualStyle
  2
OverhangOff
 70
    21
 71
     2
 72
     2
 73
     0
 90
        0
 40
-0.6
 41
-30.0
 62
     5
 63
     7
 74
     1
 91
        4
 64
     7
 65
   257
 75
     1
175
     1
 42
1.0
 92
        9
 66
     7
 43
1.0
 76
     1
 77
     6
 78
     2
 67
     7
 79
     5
170
     0
171
     0
290
     0
174
     0
 93
        1
 44
0.0
173
     0
291
     1
 45
0.0
1001
ACAD
1000
AcDbSavedByObjectVersion
1070
     0
  0
VISUALSTYLE
  5
33
102
{ACAD_XDICTIONARY
360
69B
102
}
102
{ACAD_REACTORS
330
29
102
}
330
29
100
AcDbVisualStyle
  2
Realistic
 70
     8
 71
     2
 72
     3
 73
     0
 90
        2
 40
-0.6
 41
30.0
 62
     5
 63
     7
 74
     0
 91
        0
 64
     7
 65
   257
 75
     1
175
     1
 42
1.0
 92
        8
 66
   257
 43
1.0
 76
     1
 77
     6
 78
     2
 67
     7
 79
     3
170
     0
171
     0
290
     0
174
     0
 93
       13
 44
0.0
173
     0
291
     0
 45
0.0
1001
ACAD
1000
AcDbSavedByObjectVersion
1070
     0
  0
VISUALSTYLE
  5
3E
102
{ACAD_XDICTIONARY
360
6B1
102
}
102
{ACAD_REACTORS
330
29
102
}
330
29
100
AcDbVisualStyle
  2
Shaded
 70
    27
 71
     2
 72
     2
 73
     1
 90
        2
 40
-0.6
 41
30.0
 62
     5
 63
     7
 74
     0
 91
        4
 64
     7
 65
   257
 75
     1
175
     1
 42
1.0
 92
        8
 66
   257
 43
1.0
 76
     1
 77
     6
 78
     2
 67
     8
 79
     3
170
     0
171
     0
290
     0
174
     0
 93
        5
 44
0.0
173
     0
291
     0
 45
0.0
1001
ACAD
1000
AcDbSavedByObjectVersion
1070
     0
  0
VISUALSTYLE
  5
3D
102
{ACAD_XDICTIONARY
360
6AF
102
}
102
{ACAD_REACTORS
330
29
102
}
330
29
100
AcDbVisualStyle
  2
Shaded with edges
 70
    26
 71
     2
 72
     2
 73
     1
 90
        2
 40
-0.6
 41
30.0
 62
     5
 63
     7
 74
     1
 91
       10
 64
     7
 65
   257
 75
     2
175
     1
 42
1.0
 92
        8
 66
   257
 43
1.0
 76
     1
 77
     6
 78
     2
 67
     7
 79
     3
170
     0
171
     0
290
     0
174
     0
 93
        5
 44
0.0
173
     0
291
     0
 45
0.0
1001
ACAD
1000
AcDbSavedByObjectVersion
1070
     0
  0
VISUALSTYLE
  5
3A
102
{ACAD_XDICTIONARY
360
6A9
102
}
102
{ACAD_REACTORS
330
29
102
}
330
29
100
AcDbVisualStyle
  2
Shades of Gray
 70
    23
 71
     2
 72
     2
 73
     3
 90
        0
 40
-0.6
 41
-30.0
 62
     5
 63
     7
 74
     2
 91
        2
 64
     7
 65
     7
 75
     1
175
     1
 42
40.0
 92
        8
 66
     7
 43
1.0
 76
     1
 77
     6
 78
     2
 67
     7
 79
     3
170
     0
171
     0
290
     0
174
     0
 93
        1
 44
0.0
173
     0
291
     0
 45
0.0
1001
ACAD
1000
AcDbSavedByObjectVersion
1070
     0
  0
VISUALSTYLE
  5
3B
102
{ACAD_XDICTIONARY
360
6AB
102
}
102
{ACAD_REACTORS
330
29
102
}
330
29
100
AcDbVisualStyle
  2
Sketchy
 70
    24
 71
     1
 72
     2
 73
     2
 90
        0
 40
-0.6
 41
-30.0
 62
     5
 63
     7
 74
     2
 91
        2
 64
     7
 65
     7
 75
     1
175
     1
 42
40.0
 92
       11
 66
     7
 43
1.0
 76
     1
 77
     6
 78
     2
 67
     7
 79
     6
170
     0
171
     0
290
     0
174
     0
 93
        1
 44
0.0
173
     0
291
     0
 45
0.0
1001
ACAD
1000
AcDbSavedByObjectVersion
1070
     0
  0
VISUALSTYLE
  5
36
102
{ACAD_XDICTIONARY
360
6A1
102
}
102
{ACAD_REACTORS
330
29
102
}
330
29
100
AcDbVisualStyle
  2
Thicken
 70
    13
 71
     2
 72
     2
 73
     0
 90
        0
 40
-0.6
 41
-30.0
 62
     5
 63
     7
 74
     1
 91
        4
 64
     7
 65
   257
 75
     1
175
     1
 42
1.0
 92
       12
 66
     7
 43
1.0
 76
     1
 77
     6
 78
     2
 67
     7
 79
     5
170
     0
171
     0
290
     0
174
     0
 93
        1
 44
0.0
173
     0
291
     1
 45
0.0
1001
ACAD
1000
AcDbSavedByObjectVersion
1070
     0
  0
VISUALSTYLE
  5
30
102
{ACAD_XDICTIONARY
360
695
102
}
102
{ACAD_REACTORS
330
29
102
}
330
29
100
AcDbVisualStyle
  2
Wireframe
 70
     5
 71
     0
 72
     2
 73
     0
 90
        0
 40
-0.6
 41
-30.0
 62
     5
 63
     7
 74
     1
 91
        4
 64
     7
 65
   257
 75
     1
175
     1
 42
1.0
 92
        0
 66
   257
 43
1.0
 76
     1
 77
     6
 78
     2
 67
     7
 79
     3
170
     0
171
     0
290
     0
174
     0
 93
        1
 44
0.0
173
     0
291
     0
 45
0.0
1001
ACAD
1000
AcDbSavedByObjectVersion
1070
     0
  0
VISUALSTYLE
  5
3C
102
{ACAD_XDICTIONARY
360
6AD
102
}
102
{ACAD_REACTORS
330
29
102
}
330
29
100
AcDbVisualStyle
  2
X-Ray
 70
    25
 71
     2
 72
     2
 73
     1
 90
        1
 40
0.5
 41
-30.0
 62
     5
 63
     7
 74
     1
 91
        0
 64
     7
 65
   257
 75
     1
175
     1
 42
1.0
 92
        8
 66
     7
 43
1.0
 76
     1
 77
     6
 78
     2
 67
     7
 79
     3
170
     0
171
     0
290
     0
174
     0
 93
       13
 44
0.0
173
     0
291
     0
 45
0.0
1001
ACAD
1000
AcDbSavedByObjectVersion
1070
     0
  0
DICTIONARYVAR
  5
605
102
{ACAD_REACTORS
330
602
102
}
330
602
100
DictionaryVariables
280
     0
  1
1:1
  0
DICTIONARYVAR
  5
604
102
{ACAD_REACTORS
330
602
102
}
330
602
100
DictionaryVariables
280
     0
  1
STANDARD
  0
DICTIONARYVAR
  5
603
102
{ACAD_REACTORS
330
602
102
}
330
602
100
DictionaryVariables
280
     0
  1
STANDARD
  0
DICTIONARYVAR
  5
67E
102
{ACAD_REACTORS
330
602
102
}
330
602
100
DictionaryVariables
280
     0
  1
1
  0
DICTIONARYVAR
  5
67D
102
{ACAD_REACTORS
330
602
102
}
330
602
100
DictionaryVariables
280
     0
  1
1
  0
DICTIONARYVAR
  5
67C
102
{ACAD_REACTORS
330
602
102
}
330
602
100
DictionaryVariables
280
     0
  1
0
  0
DICTIONARYVAR
  5
679
102
{ACAD_REACTORS
330
602
102
}
330
602
100
DictionaryVariables
280
     0
  1
0
  0
DICTIONARYVAR
  5
67A
102
{ACAD_REACTORS
330
602
102
}
330
602
100
DictionaryVariables
280
     0
  1
0
  0
DICTIONARYVAR
  5
678
102
{ACAD_REACTORS
330
602
102
}
330
602
100
DictionaryVariables
280
     0
  1
2
  0
DICTIONARYVAR
  5
677
102
{ACAD_REACTORS
330
602
102
}
330
602
100
DictionaryVariables
280
     0
  1
1
  0
DICTIONARYVAR
  5
67B
102
{ACAD_REACTORS
330
602
102
}
330
602
100
DictionaryVariables
280
     0
  1
127
  0
DICTIONARYVAR
  5
67F
102
{ACAD_REACTORS
330
602
102
}
330
602
100
DictionaryVariables
280
     0
  1
2
  0
DICTIONARY
  5
63F
102
{ACAD_REACTORS
330
636
102
}
330
636
100
AcDbDictionary
281
     1
  0
DICTIONARY
  5
6BB
330
6B
100
AcDbDictionary
280
     1
281
     1
  3
ACAD_XREC_ROUNDTRIP
360
6BC
  0
DICTIONARY
  5
6BF
330
73
100
AcDbDictionary
280
     1
281
     1
  3
ACAD_XREC_ROUNDTRIP
360
6C0
  0
DICTIONARY
  5
6BD
330
6F
100
AcDbDictionary
280
     1
281
     1
  3
ACAD_XREC_ROUNDTRIP
360
6BE
  0
DICTIONARY
  5
1A
330
19
100
AcDbDictionary
280
     1
281
     1
  3
ACAD_XREC_ROUNDTRIP
360
687
  3
BUMPTILE
360
1C
  3
DIFFUSETILE
360
1B
  3
OPACITYTILE
360
1F
  3
REFLECTIONTILE
360
1E
  3
REFRACTIONTILE
360
20
  3
SPECULARTILE
360
1D
  0
DICTIONARY
  5
12
330
11
100
AcDbDictionary
280
     1
281
     1
  3
ACAD_XREC_ROUNDTRIP
360
686
  3
BUMPTILE
360
14
  3
DIFFUSETILE
360
13
  3
FBXASSET
360
183
  3
OPACITYTILE
360
17
  3
REFLECTIONTILE
360
16
  3
REFRACTIONTILE
360
18
  3
SPECULARTILE
360
15
  0
DICTIONARY
  5
22
330
21
100
AcDbDictionary
280
     1
281
     1
  3
ACAD_XREC_ROUNDTRIP
360
688
  3
BUMPTILE
360
24
  3
DIFFUSETILE
360
23
  3
OPACITYTILE
360
27
  3
REFLECTIONTILE
360
26
  3
REFRACTIONTILE
360
28
  3
SPECULARTILE
360
25
  0
DICTIONARY
  5
682
330
67
100
AcDbDictionary
280
     1
281
     1
  3
ACAD_XREC_ROUNDTRIP
360
683
  0
DICTIONARY
  5
680
330
65
100
AcDbDictionary
280
     1
281
     1
  3
ACAD_ROUNDTRIP_2008_TABLESTYLE_CELLSTYLEMAP
360
681
  3
ACAD_XREC_ROUNDTRIP
360
6B9
  0
DICTIONARY
  5
693
330
2F
100
AcDbDictionary
280
     1
281
     1
  3
ACAD_XREC_ROUNDTRIP
360
694
  0
DICTIONARY
  5
691
330
2E
100
AcDbDictionary
280
     1
281
     1
  3
ACAD_XREC_ROUNDTRIP
360
692
  0
DICTIONARY
  5
69F
330
35
100
AcDbDictionary
280
     1
281
     1
  3
ACAD_XREC_ROUNDTRIP
360
6A0
  0
DICTIONARY
  5
6A7
330
39
100
AcDbDictionary
280
     1
281
     1
  3
ACAD_XREC_ROUNDTRIP
360
6A8
  0
DICTIONARY
  5
699
330
32
100
AcDbDictionary
280
     1
281
     1
  3
ACAD_XREC_ROUNDTRIP
360
69A
  0
DICTIONARY
  5
69D
330
34
100
AcDbDictionary
280
     1
281
     1
  3
ACAD_XREC_ROUNDTRIP
360
69E
  0
DICTIONARY
  5
6B7
330
41
100
AcDbDictionary
280
     1
281
     1
  3
ACAD_XREC_ROUNDTRIP
360
6B8
  0
DICTIONARY
  5
6A5
330
38
100
AcDbDictionary
280
     1
281
     1
  3
ACAD_XREC_ROUNDTRIP
360
6A6
  0
DICTIONARY
  5
689
330
2A
100
AcDbDictionary
280
     1
281
     1
  3
ACAD_XREC_ROUNDTRIP
360
68A
  0
DICTIONARY
  5
68B
330
2B
100
AcDbDictionary
280
     1
281
     1
  3
ACAD_XREC_ROUNDTRIP
360
68C
  0
DICTIONARY
  5
68D
330
2C
100
AcDbDictionary
280
     1
281
     1
  3
ACAD_XREC_ROUNDTRIP
360
68E
  0
DICTIONARY
  5
68F
330
2D
100
AcDbDictionary
280
     1
281
     1
  3
ACAD_XREC_ROUNDTRIP
360
690
  0
DICTIONARY
  5
697
330
31
100
AcDbDictionary
280
     1
281
     1
  3
ACAD_XREC_ROUNDTRIP
360
698
  0
DICTIONARY
  5
6B3
330
3F
100
AcDbDictionary
280
     1
281
     1
  3
ACAD_XREC_ROUNDTRIP
360
6B4
  0
DICTIONARY
  5
6A3
330
37
100
AcDbDictionary
280
     1
281
     1
  3
ACAD_XREC_ROUNDTRIP
360
6A4
  0
DICTIONARY
  5
6B5
330
40
100
AcDbDictionary
280
     1
281
     1
  3
ACAD_XREC_ROUNDTRIP
360
6B6
  0
DICTIONARY
  5
69B
330
33
100
AcDbDictionary
280
     1
281
     1
  3
ACAD_XREC_ROUNDTRIP
360
69C
  0
DICTIONARY
  5
6B1
330
3E
100
AcDbDictionary
280
     1
281
     1
  3
ACAD_XREC_ROUNDTRIP
360
6B2
  0
DICTIONARY
  5
6AF
330
3D
100
AcDbDictionary
280
     1
281
     1
  3
ACAD_XREC_ROUNDTRIP
360
6B0
  0
DICTIONARY
  5
6A9
330
3A
100
AcDbDictionary
280
     1
281
     1
  3
ACAD_XREC_ROUNDTRIP
360
6AA
  0
DICTIONARY
  5
6AB
330
3B
100
AcDbDictionary
280
     1
281
     1
  3
ACAD_XREC_ROUNDTRIP
360
6AC
  0
DICTIONARY
  5
6A1
330
36
100
AcDbDictionary
280
     1
281
     1
  3
ACAD_XREC_ROUNDTRIP
360
6A2
  0
DICTIONARY
  5
695
330
30
100
AcDbDictionary
280
     1
281
     1
  3
ACAD_XREC_ROUNDTRIP
360
696
  0
DICTIONARY
  5
6AD
330
3C
100
AcDbDictionary
280
     1
281
     1
  3
ACAD_XREC_ROUNDTRIP
360
6AE
  0
XRECORD
  5
6BC
102
{ACAD_REACTORS
330
6BB
102
}
330
6BB
100
AcDbXrecord
280
     1
102
SHADEPLOT
 70
     0
102
SHADEPLOTRESLEVEL
 70
     2
102
SHADEPLOTCUSTOMDPI
 70
   300
  0
XRECORD
  5
6C0
102
{ACAD_REACTORS
330
6BF
102
}
330
6BF
100
AcDbXrecord
280
     1
102
SHADEPLOT
 70
     0
102
SHADEPLOTRESLEVEL
 70
     2
102
SHADEPLOTCUSTOMDPI
 70
   300
  0
XRECORD
  5
6BE
102
{ACAD_REACTORS
330
6BD
102
}
330
6BD
100
AcDbXrecord
280
     1
102
SHADEPLOT
 70
     0
102
SHADEPLOTRESLEVEL
 70
     2
102
SHADEPLOTCUSTOMDPI
 70
   300
  0
XRECORD
  5
687
102
{ACAD_REACTORS
330
1A
102
}
330
1A
100
AcDbXrecord
280
     1
102
MATERIAL
148
0.0
149
0.0
149
0.0
 93
        0
 94
      127
282
     0
 72
     0
 77
     0
171
     0
175
     0
179
     0
273
     0
  0
XRECORD
  5
1C
102
{ACAD_REACTORS
330
1A
102
}
330
1A
100
AcDbXrecord
280
     1
270
     1
271
     1
  0
XRECORD
  5
1B
102
{ACAD_REACTORS
330
1A
102
}
330
1A
100
AcDbXrecord
280
     1
270
     1
271
     1
  0
XRECORD
  5
1F
102
{ACAD_REACTORS
330
1A
102
}
330
1A
100
AcDbXrecord
280
     1
270
     1
271
     1
  0
XRECORD
  5
1E
102
{ACAD_REACTORS
330
1A
102
}
330
1A
100
AcDbXrecord
280
     1
270
     1
271
     1
  0
XRECORD
  5
20
102
{ACAD_REACTORS
330
1A
102
}
330
1A
100
AcDbXrecord
280
     1
270
     1
271
     1
  0
XRECORD
  5
1D
102
{ACAD_REACTORS
330
1A
102
}
330
1A
100
AcDbXrecord
280
     1
270
     1
271
     1
  0
XRECORD
  5
686
102
{ACAD_REACTORS
330
12
102
}
330
12
100
AcDbXrecord
280
     1
102
MATERIAL
148
0.0
149
0.0
149
0.0
 93
        0
 94
      127
282
     0
 72
     0
 77
     0
171
     0
175
     0
179
     0
273
     0
  0
XRECORD
  5
14
102
{ACAD_REACTORS
330
12
102
}
330
12
100
AcDbXrecord
280
     1
270
     1
271
     1
  0
XRECORD
  5
13
102
{ACAD_REACTORS
330
12
102
}
330
12
100
AcDbXrecord
280
     1
270
     1
271
     1
  0
XRECORD
  5
183
102
{ACAD_REACTORS
330
12
102
}
330
12
100
AcDbXrecord
280
     1
 70
     1
 90
1959938040
 71
     1
  1
B2FF10F5-9459-4CA2-959C-F4729410C1CA
311
504B03040A0000080000064592423DEE336E79000000790000001B0000006175746F6465736B2D64657369676E2D7061636B6167652E786D6C3C3F786D6C2076657273696F6E3D22312E302220656E636F64696E673D227574662D3822203F3E3C666F726D6174733E3C666F726D61743E687474703A2F2F736368656D612E
311
6175746F6465736B2E636F6D2F64657369676E2D7061636B6167652F323030393C2F666F726D61743E3C2F666F726D6174733E504B030414000608080006459242D486FD9CA0000000F4000000130000005B436F6E74656E745F54797065735D2E786D6C7D8EC10E82300C865F65E91D8A1E8C310C0EEA1BF002731658846E
311
D98AC1B77784ABF1D8FE5FBFBF75BBCE937A534CCEB38643598122B6FEE978D0B0485F9C41B54DDD7D022595594E1A469170414C76A4D9A4D207E29CF43ECE46F218070CC6BECC4078ACAA135ACF422C856C0E68EA1BF5669944DDD7BCDE7B1F8E415D77AECB980613C2E4AC91FC167A2B244592486606FC29C8FD7F045B9A
311
EF7053A7E60B504B0304140006080800064592422D2499EEEB0000007C01000008000000636F72652E786D6C8D90416EC3201045AF82665B6183B1D3C8C2444E9C9EA01740401C94182C03558F5F9C3852BBEB6A467FFE9B197D7EF89EEEE8CB2CC17AD7012D0820E394D7D68D1DA478C17B4007C117EFE32F1B202727D3C1
311
2A83E0E3E2D3BC49CABB685CCCAAF3DA6CA20CC14440EA9E9B0E82BA9A491632C5EC08B76296EA264753D05797E194AC46CF2356E77DF662CD02A23FD6C7D3FB70C6C3A91F707DA60DEEFB0F86875DC37AC2AA7A471B5EAEB0E0D14EAFFB6A31321A0DA22294615263BAFF24FBB6262D656F84B684F072B5FF81D2ACFF0925
311
EB22ABB6779F580041F3238F81E0E59A452E8FA0725D73133F504B03041400060808000645924255019EA25F0000007C00000007000000636E782E786D6C4DCB3B0E80201045D1AD90E915ED2CF8AC45050C11660C8261F98AB1B07AC9C97D42D718D865D3E909258CFD00CCE24AC6E326A164D74DC0B4128928FF32603847
311
2BA13128B1252AC747C6BAB984FC68F0B87FE8960A5C09FE86CFB69FBA01504B030414000608080006459242F909A23A67010000020300000C0000006662782F636F72652E786D6C8D52ED8E8230107C95A67F2FD016D033A6D4A0784F702F50A17244684969898F7FCB87F1BC1863484A33B3B33B3BC077D7B64183B27D6D
311
748A59483152BA3065ADAB147B770E3618ED04B7C6B83F651869D9AA148F3016BCB2C6770B5418ED9476806A53AA05947DAF1C4645039714F7C58F6A6528BD838AFE1276B2B8C84A852C041AEA04EF9D0503681E329E589C4F574E665C70EFEB7261EB12A6D5E75A592CB27DB23F7CE6C7203F6479901CD92AC8B2AF38C8D7
311
AB38A37194ACD98A93512CB8ABDB9BBBC22AE954894544591CD024609B6FBAD92674CBE20FCAB6947232963F887C57BE29F2B57671B4D89D653D160C8C4CC4BF6D2122877A39801F2238194384D794F063D0100884ECE4A9B9ED7101685085333601A634FE4E0DB2F10AA652343D9CCC2C749E1AC0664FFB442FFABCEE011F
311
50EA0AAC4907D79377E3743E4F5DA2E8940D067745DAD856367773B3C5FB791FF4545E98C6D877D46459952C6192F1EF15BF504B030414000608080006459242F03649C17D0000009D0000000B0000006662782F636E782E786D6C4DCCD10A83201886E15B91FFDC556836410DB4ED3E6259C84CC3E9D8E5AF46073BFAE0E1
311
E315FD67F5E86DD3CBC520A1B9D4806C78C4C9854542C933BE02EA954831E6BF1BA030AE56C2C1A0C49262D94E9AEC3C169F77F52E3C4F6CEF4473D3116CD84D634A078A35E70CD7869076604DC719834A89EA57DAF708AB2F504B030414000608080006459242DC48C8D92D01000014020000310000006662782F35463342
311
394337332D433645422D343444342D423939362D3043333335443631373936362F636F72652E786D6C8D515B6EC32010BC0AE22B55651B824DEC081329497B825EC00192A0C460F1A872FC42ED48ED5F7E58343B333BDA65BBC77807DFCA796D4D0F718920504658A9CDA587319C8B16821D67CEDAF08706811946D5C30C43
311
CE2ECEC6698184354199905063A55AC0C17B152010F7F4E9A11757350EE5104362F85B390DE2365C5489CBD44E3CCE7C7029009887E417F2E693ECBBC3861407FAB12FEAFA5817FBAEA3053A10D21C29DE7494B26A167216A3968B5CCB14479FB572AF9A643167418FCFF8C2A9212809F91A6152A0BAC0ED176AB735DA62F2
311
8EF016215665FA3F519CE48BA2A84D20EB25EE2CF3906356CD0DCEA48DA7FB338C7A4CD60590E7ADBC126F90A312114CBAA66D583553D3029227AD174F1FAC4B0B5EDD4E898D132B1BD39AB32ADF2895DF03A69AEFC97F00504B0304140006080800064592427F048ACD4D01000033030000300000006662782F3546334239
311
4337332D433645422D343444342D423939362D3043333335443631373936362F636E782E786D6CD593BD6E032110845F05D146F7437CB22C8BC3528A3C418AB41CAC1D620E4EFC44F1DB67B1B1E3C645CA34E8343BCCAC3E717CF73D5BF205211AEF46CADA9E1270CA6BE30E23CD69DF6C28D9091EBC4F77364A9C9C61A445
311
A6821F82CF4B9534EC65B609556BDCB18A01A2CF414144B9DC24D62B6931005C9351847902AD41939B11BFF610701514A713491F405E5FDE899F3E41A5C8BB922278573A042F676DBA3351A2AC8C71A4517DC02C5B9993D7108FAD9649B6ACBD763DD8E93789940BD7CA1C0C29E5232D271575A31639F20E8782C714905E35
311
A5D30254C865B146C98490BBB3F1E2113C1B97D643F51A041FD0CDD6AB61C0B0F34CF06466A80E154026D0543CF76CD5F443C3366FFD663BF45BB67AEAD9B6EF7957EC824FDEDB7A096320F88528EF12B84405E35D193FC2577D449B80AC7D38FD012402A8AD173AB78CFFCCA73BBF6FC415F02F103F504B03041400060808
311
0006459242FEAE48049805000076100000340000006662782F35463342394337332D433645422D343444342D423939362D3043333335443631373936362F6F626A656374732E786D6CAD575D8F9B3814FD2B887D0E8424D3362B862A933455D49DB66AD46A1F2245060CE31DF321DB4C33FDF57B0C86409A4CB3ABBE0036F6
311
F5BDE79EFB61FFED21E3D613159215F9ADED3963DBA27954C42C4F6FED4A25A337B6F536F04551A8DE32DBCA49466F6D3D6D077E2A8AAA3453314D48C5D5C9ECFAEE6F4B4634A7B6157122E5AD2DA3079A118754AA88A97C7462A288932607C7739A8543B1A920E5C389D092089A2B688AF91C52AC46296F381CDB6EE0BBFA
311
7FE0EBA75935BDBCCAADED199ECF72A9481EFD74D88998A9375BBD9BDCCC4737B3D974347B35F14677EBBBD5C87B3D1D2F5F2D97F3C5BB390E964A4092D144D0C40EDE031BC122DF6D7E057EC572359D9825C641AEA04F4C7BCA0E2696E7BBCD9ACE3A63E439F5A322CF69546305346AFB8CE89896348FE173462534EB2134
311
1E0E3D8D63EFF7548FCD91FDE9EB10E8EFE8096A756FDF7D4D8BF01F9820AF6190905433B0C1D218DA70757C44382C0A6EFE3169654451C108B7380B0511CF7680A57A49E00FC468260B1D0DDA023B80179ADF43BA208C7ECDF3735A2615E79AC6765047C11EB14295AC35633FA8386ADF47063AC1579A0D6F8C41EAB9A476
311
306F28F2E6844D0D9056C2490A97C34CBD733A393174A9E374B3B2830FEBF0B0D5B17BFEF0521425154AD307D46A1DD7BE354A4627EF2ACFE90DF6892A4750BE00F98F08F5A32AF09B6087D961664E5182E432294406DF58636B34C6636C79F5537FF7BE7CB7DB3CF4DE253CE16C0DD56FC0736843DF973D3803FF09842FC4
311
D498B68D0847DAB8673900D224B1788129E4E1243CD8C106590E5919BB080F3C980C759FF0E9BB460C12457D52EF9D03CB93B4784582066C3523A146437EA3E0D14F3FA5B3FA60B3EC12BC37BF85AE8BD5F6C3B6120989E8BD89E9154D58CE144ADC91377D8506980F2C7AA4CFDF0B11C3D09FF1DEF6F1CECC5112686BCC35
311
F0699BD3F5E078F2E08008FBD242A71BFF1727C0085D587BF2EF998C28E724A745D59EFB62FD40D96820D6C1AE99DC1598636101699A3F273188221D09566A10BB6AD5254DE782755F371FC1483BB87BFE8B3CF7B35778CCBD51C10BB10F9FF74D5A3A0BF5B721B70D06AE9602BAD741D2C6BF017D1FB324A92492E0195CBF
311
6D967DDFE9B48014D14A6DA26506FB115C4418D2B67251AD0541252DF23D43DD44DC9D3DA02F1F901A06D4022F692C294FF68CF32ADB278CA31AED33525E80E3FFEB1F5659B9275951E5EA82EC81EAA80E43DD07EC95DF898A1EEC605BBF4777C8BD318D2F9041D79233580D5C7B3759AFBDF1FA66349FA1899A2D1793D1FC
311
66BE1CAD67AF27F399375E7ACB45EBA74693C06F4B4D3FA2E1259436BF12CCB8EFEB06F16392801DDC132577EF9BF06CDF5F370E7A61DFC51ED4CB6EE3227E42DF47E35F0B38AE3C2B6893959C66345744C7D0BDFEE05F08FA8C8132CDFC262329BD42CAA7F7DB13633073C5BECF3ADEE9F793BD6676A903F2AC10F5506561
311
4E183FD99836483A659E1AFC5A9F74EFA6D0B4433D328E41672A0BCE62E4C1D84A699151856C784511121995A05EBFA78FCDDDE38ADD4F4D87A848C869ABC9034193CC25C202D4AA22359CB7FE4053A7FBAA5B1BE5D679C4C3640ADB02676E6D34E98A45543A210AB46E856AE1E052BF9347E34FF294A3D76E3675E36E97C6
311
665092BB25D7F44FC6AE26851B0390464AF40D6888E09D5A99C0AF7533FFA3FF6478AB8E45143EC34A75B61C273A63EA6310A28D51E6B68026E6D11C7D40A0BE6C96E7D46B06885C75CB7A91048DD4912222AD6F0A5A3FA3D262F5D94587626D3E5925AF52F8F27A49234141E64A073858045618992551A0EAF2CFDD6751E0
311
269B656CB766205E546455CE760B7309B6B60FB8D2C63B6404AAEF227237197B935D7D0730D7927D482475482C1F3101770AD6A13BF039C8D85C143D2C323E37F0BB1AFF135A6E5696A966B3E3FA7E42D588A0DBC8A985C0D1F7481D26FD05E58BD700B75E0A55051AF8E05F504B0304140006080000064592420000000000
311
00000000000000350000006662782F35463342394337332D433645422D343444342D423939362D3043333335443631373936362F76657274696365732E62696E504B030414000608080006459242F270F1330600000004000000360000006662782F35463342394337332D433645422D343444342D423939362D3043333335
311
443631373936362F747269616E676C65732E62696E636660600000504B030414000608000006459242000000000000000000000000370000006662782F35463342394337332D433645422D343444342D423939362D3043333335443631373936362F617474726962757465732E62696E504B030414000608080006459242D5
311
987DFC8F00000041010000360000006662782F35463342394337332D433645422D343444342D423939362D3043333335443631373936362F6469726563746F72792E786D6C858F410EC2201045AF4266AF15DDB800BA74E7C21B903225242D6328188F2FA5C4183471359997F9FF81E89FF3C41E1816475E02DF1F80A11FC8
311
386F25A438EECEC07A250251FC3803E6F58C12560C4AD840E95E91C151A72936F496F35732D860FE635F62C8F2DA16B505C545B74125BAA2FA9E05D7CC053D063734D5C7665FD55B6B8D15D5E9BFEAFD8490FFA45E504B0304140006080800064592423E8FB776FE000000A00100003B0000006662782F3546334239433733
311
2D433645422D343444342D423939362D3043333335443631373936362F7265736F75726365732F636F72652E786D6C8D50596E833010BD0A9ADFCA60B3A411328E48684FD00B586642AC041B79A97AFC9A40A5F6AF3F33A3B7689E1E3F7DCD8FEC139DD7D674C0720A191A65476DA60E62B892236427C19DB5E1970C322367
311
EC608541F0C9D9B8EC90B226A009093576C41D94DE63804C3DD2D18157379C652E63480A7FCF17A9EE72C29CE5894E3AC17D702940B63D59270887DE46A7D0F36263058F518FBB468FE9A7BE6A7420FA737DBEBC0E03192EFD40EA37D690BE7FAFC87068AA9E56657D600D2F56B3E041CF3F199543197004515256115A1376
311
FCA0C7B6A62DAB5E286B29E5C52AFF638ACBF84F53D42654E51E77B379102C05791282176B5F693DCB4C7BED567C03504B010214000A0000080000064592423DEE336E79000000790000001B00000000000000000000000000000000006175746F6465736B2D64657369676E2D7061636B6167652E786D6C504B0102140014
311
000608080006459242D486FD9CA0000000F40000001300000000000000000000000000B20000005B436F6E74656E745F54797065735D2E786D6C504B01021400140006080800064592422D2499EEEB0000007C010000080000000000000000000000000083010000636F72652E786D6C504B01021400140006080800064592
311
4255019EA25F0000007C000000070000000000000000000000000094020000636E782E786D6C504B0102140014000608080006459242F909A23A67010000020300000C00000000000000000000000000180300006662782F636F72652E786D6C504B0102140014000608080006459242F03649C17D0000009D0000000B0000
311
0000000000000000000000A90400006662782F636E782E786D6C504B0102140014000608080006459242DC48C8D92D0100001402000031000000000000000000000000004F0500006662782F35463342394337332D433645422D343444342D423939362D3043333335443631373936362F636F72652E786D6C504B01021400
311
140006080800064592427F048ACD4D010000330300003000000000000000000000000000CB0600006662782F35463342394337332D433645422D343444342D423939362D3043333335443631373936362F636E782E786D6C504B0102140014000608080006459242FEAE480498050000761000003400000000000000000000
311
000000660800006662782F35463342394337332D433645422D343444342D423939362D3043333335443631373936362F6F626A656374732E786D6C504B01021400140006080000064592420000000000000000000000003500000000000000000000000000500E00006662782F35463342394337332D433645422D34344434
311
2D423939362D3043333335443631373936362F76657274696365732E62696E504B0102140014000608080006459242F270F13306000000040000003600000000000000000000000000A30E00006662782F35463342394337332D433645422D343444342D423939362D3043333335443631373936362F747269616E676C6573
311
2E62696E504B01021400140006080000064592420000000000000000000000003700000000000000000000000000FD0E00006662782F35463342394337332D433645422D343444342D423939362D3043333335443631373936362F617474726962757465732E62696E504B0102140014000608080006459242D5987DFC8F00
311
0000410100003600000000000000000000000000520F00006662782F35463342394337332D433645422D343444342D423939362D3043333335443631373936362F6469726563746F72792E786D6C504B01021400140006080800064592423E8FB776FE000000A00100003B0000000000000000000000000035100000666278
311
2F35463342394337332D433645422D343444342D423939362D3043333335443631373936362F7265736F75726365732F636F72652E786D6C504B0506000000000E000E00800400008C1100000000
310
504B03040A0000080000064592423DEE336E79000000790000001B0000006175746F6465736B2D64657369676E2D7061636B6167652E786D6C3C3F786D6C2076657273696F6E3D22312E302220656E636F64696E673D227574662D3822203F3E3C666F726D6174733E3C666F726D61743E687474703A2F2F736368656D612E
310
6175746F6465736B2E636F6D2F64657369676E2D7061636B6167652F323030393C2F666F726D61743E3C2F666F726D6174733E504B030414000608080006459242D486FD9CA0000000F4000000130000005B436F6E74656E745F54797065735D2E786D6C7D8EC10E82300C865F65E91D8A1E8C310C0EEA1BF002731658846E
310
D98AC1B77784ABF1D8FE5FBFBF75BBCE937A534CCEB38643598122B6FEE978D0B0485F9C41B54DDD7D022595594E1A469170414C76A4D9A4D207E29CF43ECE46F218070CC6BECC4078ACAA135ACF422C856C0E68EA1BF5669944DDD7BCDE7B1F8E415D77AECB980613C2E4AC91FC167A2B244592486606FC29C8FD7F045B9A
310
EF7053A7E60B504B030414000608080006459242A297DEFDEC0000007C01000008000000636F72652E786D6C8D904D6EC3201085AF82665B6183ED38D8C24489929CA01740401C94182C03558F5F9C1FA9DD7535A337EF9B193DBEFB9EEEE8CB2CC17A37002D0820E394D7D68D03A478C10CD04EF0C5FBF8CB06C8C9C90CB0
310
CA20F8B8F834BF24E55D342E66D5796D5EA20CC14440EA9E9B0182BA9A491632C5EC08B76296EA264753D07797E194AC46CF2356E77DF662CD02A23DD5DD667B64B869DA1637DD96E243D56DF0E1DC55ED7E7F62EC78E6E50A0B1EEDF4BEAF1623A3D1202A426B4C1A4CD927617D437A5A7D10DA13C2CBD5FE074AB3FE2794
310
AC8B75F57AF7890510343FF218085EAE59E4F2082AD73537F103504B03041400060808000645924255019EA25F0000007C00000007000000636E782E786D6C4DCB3B0E80201045D1AD90E915ED2CF8AC45050C11660C8261F98AB1B07AC9C97D42D718D865D3E909258CFD00CCE24AC6E326A164D74DC0B4128928FF326038
310
472BA13128B1252AC747C6BAB984FC68F0B87FE8960A5C09FE86CFB69FBA01504B030414000608080006459242A60FD25967010000020300000C0000006662782F636F72652E786D6C8D52ED8E8230107C95A67F2FD08288604A8D467D827B810A9523424B4A4B7CFC5B3E0CE7C51843529A999DDDD901B6BB3735EAA5E92A
310
AD321CF81423A9725D54AACCB0B3572FC168C799D1DAFE29C34889466678803167A5D1AE9DA15C2B2B950554E942CEA0E83A6931CA6BB864B8CB7F64237CE12C547437BF15F94D94D20F7CA0A18EB3CE1A3080A621C389F9F5726764C23973AE2A66B62A605A75ADA4C13C3EADD2F5E698785114C75E946E02EF10A66BEF70
310
4EC378BF3F25C9F1CCC820E6CC56CDC35D6EA4B0B2C03CA4C1CAA3911724DF34D946741B845F34D852CAC850FE24726DF1A1C855CAAEC2D9EE24EB300FC0C848FCDB1622B2A8133DF8219C912144788D093F070D8140C8565CEAC71E37807A995B6D22600AED16AA17B5933095A2F1616462A1F3D800367BD9277CD3E77D0F
310
F8804295604D58B85E9C1DA6B369EA1C452B8DD7DB3B52DA34A25ECC4D16977319F4529EEB5A9B4FD4645E95CC6192E1EFE5BF504B030414000608080006459242FD8B964C7D0000009D0000000B0000006662782F636E782E786D6C4DCCD10A83201886E15B91FFDCA536D0408DD25D482C0B99E9703A76F9ABD1C18E3E78
310
F87865FFD9027ABBFCF2292AA01702C8C57B9A7D5C15D4B26001A8D732A754FE6E80E2B439050783966B4EF579D2EC96A986B26BF0F171E2D0714B196B31352DC7573B123C52CE3015841B31D81BE90C345A36BFD2BE47587F01504B030414000608080006459242D81177FE2A01000014020000310000006662782F413937
310
44313232332D314333372D344442302D423137322D3138303743384144453039432F636F72652E786D6C8D515B6EC32010BC0AE22B55651B0CAD9D0813E5D11BF40204488A1283C5A3CAF10BB523B57FF961D1ECCCEC68976DEFE30D7C6B1F8CB303C43582405BE994B19701A678AE7A08B69C79E7E21F1A04568C7A800586
310
9C5DBC4BD3024967A3B631A3D629BD8022041D2190B7FC1960905F7A14B5483133C2B59E84BC8A8BAE719DDB99C759883E0700F390F242BE5B7747DCB6A4C207D255F4B847D51E776D857BD41DFADDF103AD0FAC99859CA564D422372AC73167A3FDB32645CC5934E323BEF45A44AD206F112615A279E827EA37146D70FB8A
310
F00621D614FA3F519AD493A2646C24ED12779605C8316BE60667CAA5D3ED1146DF27E72328F35641CB17C8518D08E9297D5BB366A6E60564CF77BA7886E87C5EF0EA7ACA6CB218BF53CE9A72A35C7E0F986BB927FF01504B03041400060808000645924218B6C1AB5501000033030000300000006662782F41393744313232
310
332D314333372D344442302D423137322D3138303743384144453039432F636E782E786D6CBD93CD6EC32010845F0571AD6CE3C48AAC0813A9873E410FBD62D8A4343658FC54CDDB7749489A4B0E95AA5E90353BCCAC3E61BEFB9A27F2093E186707DAD68C12B0CA69630F034D715FF594EC04F7CEC53B1B2556CE30D02C53
310
C10FDEA5A5481AF6324D11D5C9D863113D0497BC828072BE4926A7E4840160AB8422CC23680D9ADC8CF8B5078FABA0389E487C07F2F2FC46DCF8012A06DEE414C19BDC21783E4BD39D891235C910061AD43BCCB296293A0DE1586B1965DDD6D7AE073BFD24917CE15A99BC21B97CA0F9A4A26C542347DEE050F0103DD22BA6
310
785A800AB92C93513222E4E66CBC78044FC6C64D57BC06C17B74AF579BBEC7B0F34CF06866280EE54146D054AC58BBAE5857B5FD2BEBB71DDBB6AB27D66E19E34DB60B3E3A37954B1803DE2D44391BC1462A5ADEE4F1237CC547B4F1C8DAF9D32F402280D27AA173CBF84B3EED66DD75FFC8A739BF6FC4E5F12F10DF504B03
310
04140006080800064592426CFAAB40590700008F1B0000340000006662782F41393744313232332D314333372D344442302D423137322D3138303743384144453039432F6F626A656374732E786D6CED59DD739B3810FF5718EED9D8D84E5BDF103A89D3743CBDB49DFADAB907CF3032C8441721184924F1FDF5B7FA000331
310
09BEE6DEFA6003425AEDFEF6534BF0FE31A3CE3DE682E4ECDCF5BD89EB6016E70961E9B95BCADDE89DEBBC0F039EE7B231CD7518CAF0B9AB86DD3048795E167628C13B5452D919BDBEFCCB113166D875628A843877457C8B33E4A152E60916775E8224F2D2DDA3E77B66629B6CCA5171DB215A208E99044E619C0115C730E5
310
B71F27EE380CC6EA7D18A87F3B6B3668D6BC7FD6584BDDE6923021118B9FB0D421331BC4D2CC9F5F7D989E2D4667F3F96C347F33F54797D7975723FFED6CB27CB35C2E2E3E2C80BD6D9E532B53820BCC12D0DFDE0DFD60ACDED4A25B048E711DE78CE15803095069B1BA040916B05503BE49FBD15712355E6B091BCF73F5DE
310
B2D0189EB5A9F4CD1A06448B2E0862B7AB24AEAE4DF9F2EDDF20B81862945C6009DC0AC941BB161E0E5EE18693606C46C3607BD005114E8624E6045187922D471C940253D59430300B2C19E51C1C48394A02AD39F3BA6D5BE0992FBBCE312E7725A5CA33DC503B5604EE87A5D09C917F303F70DF44067802694BC2E43BCBA5
310
DC17D80D17C1580F8681BACCA6F6A501D2D951940A8D8879DB1174A95C7F75E5869FAEB78F6B150E8E6F5EF0BCC05C2AA3537AD47C8121DBAB42C96EEB0FD29C5A00C21850EDCA0328DF00F9CF103D0EAC80DE38799C3FCEED5CC91113BB9C67A01B67E28C26F037717CFDAFEE1B77C1B85EDCD65E1F9EE0A60AAA773F8F67
310
5B068D95E5BF016718DC83C1E77C665FAD6344C19E6F08038094913834872108EDBBEDA31BAE207042A0875588863E880CECDEC36D30B6640E5AA9DCCB7A1D0344ED1EB3214A02D8B445021B3D7AFA08D98393F8A0A6A6887DF09EBD8AB95E5CAD3FAD4BBE4331BEB13E7D857784110959F338432DCC5B12DDE1FD43CE1310
310
F429DEEB26DE99DD4A00DA0A73057C5A81A01E0E3BB73688615D9AAB7013BCB00308A1727583FE0D1131A614319C97D5BE757453865A7BBCAD19DC706A209E4D3B26CCF13D51550538CD61468B51C8FB31278502D10D3F1AC9EAA0E9F548F77DF5192CB29EDF336BC520F43244FFD441EB080E2DCBAE90B640D4026F0FE13C
310
CE69CEA3ED3E3291CE855A02D8687BCB8F165188F546498A0A7890F6BB2AA4A446DA2821BB5D2920AE1E61F1C76AD934878937F3CF9CE67FC719E7106DC17711B77ED7D92322194A71B44349DF76CDDD6ADA4293EC21CDF18E825CE49EC87D84643449707A0A3427115FBC2AF594E642108605E4ABA3E037D1987810488C36
310
2B9695563B4013116558227A0A028A4C0FB83AEDE81A3786D2E1651E6BEB7D4E634DA2FF93457004B564CE2202A528E4901719F7BD3388216D740DCA1D7CC1DA2ADA5A0C5A420911EFA3074CD25B790AEA867C0FEE311C494A19E5058AC1AC07907DE22B4AA91DDEB728BE53F9238A4BFA5A062230DD4584D2328BE047189C
310
3C86B8761D989E45A141DCC43E893328CA902CF9904DDE9C4D9EEC636A866E086C6CB42314C27694A1A207F55640D4F58853836FA9F728755B664584B2BC64830CC59B75BDC992EFAA55911DC8AF2A15A16CAC085B82614098ACB36A15B3C1D475600537D2816A1F099415D49CC25E483C7EED4D9A72EF06DCFAE9EB6E9041
310
E1D7A3BD66449D5730581E5B8581784032BE75C3B5BE8E2EA1FE4E707248F555ADD9AC00013115C94B4EAC8ABEAFA0BCB1359A1BDE2029361F4DD6ADAEDF571E743F8231AC81DAA55EB85240679849A42A931B7543BF2108C12D1A667CA572EA29542E9244578D885E933E75B6CA88D6A619F18A5BCCF20C7E6C43584CCB04
310
6F5022EEA21B49A33551AC5B29BD8C54183F2BE0978FEB0E3C303240A4AFAAC0C30F9DB57674A9CAA5A344E46D996D192210045BA2A546375EC152AB914ACBF5559D29A0EE0203B32A9EFF3A5934DB11BF4E16A9358C9F3A595CEEFF40FB665FA491CE6365D7271D03EAFCA4A8BCC63140B71D6AAA751631C9DCCA6F9D2982
310
A05845F9C1D55815340CC13E8EFF73D6EECB8266BB0EFFA7656DFF49C5715256694D565DAA2395EBAA99C32EA7D7D7FEE4FA6CB498439776BEBC988E16678BE5E87AFE76BA98FB93A5BFBCA8D1D48E1A067530D3B90B9E4D50AB86D593C500BAB222A72481D37CE2A41862BE8433FD80F639CFB080E4D96C7627B6293F60F5
310
BDE9734AB4A5B8E2E4164183980A48EB805119CBF6B8F31BB426251CB4CF5D681A7977F067ADD27520F39CBBD02A9024C6C2DB429B4935F4347148B93AF75B62800F62A94A896651FD5CAF52D8B4C27F3D65481AB072B57A1850B815D0FD6A7528346F96A7F824C12B761C24E1765B4AA8D68C2C87815A18BDCD41FD46364A
310
D89DDDFA115CF779B17C4FCF692132E893C1B34660A88E24E2A9EE772BC62C4B17575FC7D06773565F9C829629E87238A511C760CCA52AA8C08AC02A2CCD024930D5E5EF9BAF3C874F3C594636AA2E72E23C2B19D95CC0512C81AF43CEFA16BEF5241BA818B0EAA88BCD74E24F37BA936D9BEBD11609ECA9520806AA0A4271
310
DFB13330C6275D29DBB31C2BFC3BD357578E8D9CD00130C6F3A4B16BBE6C39E038EA1B8A7213EDDC9588CF36B3C77A2A1802873674F82F504B030414000608000006459242000000000000000000000000350000006662782F41393744313232332D314333372D344442302D423137322D3138303743384144453039432F76
310
657274696365732E62696E504B030414000608080006459242F270F1330600000004000000360000006662782F41393744313232332D314333372D344442302D423137322D3138303743384144453039432F747269616E676C65732E62696E636660600000504B030414000608000006459242000000000000000000000000
310
370000006662782F41393744313232332D314333372D344442302D423137322D3138303743384144453039432F617474726962757465732E62696E504B030414000608080006459242D5987DFC8F00000041010000360000006662782F41393744313232332D314333372D344442302D423137322D31383037433841444530
310
39432F6469726563746F72792E786D6C858F410EC2201045AF4266AF15DDB800BA74E7C21B903225242D6328188F2FA5C4183471359997F9FF81E89FF3C41E1816475E02DF1F80A11FC8386F25A438EECEC07A250251FC3803E6F58C12560C4AD840E95E91C151A72936F496F35732D860FE635F62C8F2DA16B505C545B741
310
25BAA2FA9E05D7CC053D063734D5C7665FD55B6B8D15D5E9BFEAFD8490FFA45E504B03041400060808000645924252F64A8DFF000000A00100003B0000006662782F41393744313232332D314333372D344442302D423137322D3138303743384144453039432F7265736F75726365732F636F72652E786D6C8D504B6EC230
310
10BD4A34DBCA891D424822C708049CA017B09C21B52036F2A7EAF16B432AB5BB6E6646EFA3797A7CFFB5DC8B4F745E5B33022B291468949DB4994788E14A3A28F6823B6BC32F1914462E38428641F0D9D9F85821654D4013126AEC842B28BDC70085BAA76304AF3E7091A58C2129FCAD7C4875933396AC4C74D209EE834B01
310
8AD7933C4138F4363A859E572F56F018F5B46AF4947EEAAB4607A23D6FFAEDEEB4234DD3B6A4E9778C1CEB7E4B8E97BE6E0F8773D79D2EBCCA66C1835E7E322A8732E004A2A66C43684358F74EBBA1A103ABDF281B28E55596FF31C5C7F44F53D4266CEA35EECBE641B014E449085EE5BED27A969976EE567C03504B010214
310
000A0000080000064592423DEE336E79000000790000001B00000000000000000000000000000000006175746F6465736B2D64657369676E2D7061636B6167652E786D6C504B0102140014000608080006459242D486FD9CA0000000F40000001300000000000000000000000000B20000005B436F6E74656E745F54797065
310
735D2E786D6C504B0102140014000608080006459242A297DEFDEC0000007C010000080000000000000000000000000083010000636F72652E786D6C504B010214001400060808000645924255019EA25F0000007C000000070000000000000000000000000095020000636E782E786D6C504B010214001400060808000645
310
9242A60FD25967010000020300000C00000000000000000000000000190300006662782F636F72652E786D6C504B0102140014000608080006459242FD8B964C7D0000009D0000000B00000000000000000000000000AA0400006662782F636E782E786D6C504B0102140014000608080006459242D81177FE2A0100001402
310
00003100000000000000000000000000500500006662782F41393744313232332D314333372D344442302D423137322D3138303743384144453039432F636F72652E786D6C504B010214001400060808000645924218B6C1AB55010000330300003000000000000000000000000000C90600006662782F4139374431323233
310
2D314333372D344442302D423137322D3138303743384144453039432F636E782E786D6C504B01021400140006080800064592426CFAAB40590700008F1B000034000000000000000000000000006C0800006662782F41393744313232332D314333372D344442302D423137322D3138303743384144453039432F6F626A65
310
6374732E786D6C504B01021400140006080000064592420000000000000000000000003500000000000000000000000000171000006662782F41393744313232332D314333372D344442302D423137322D3138303743384144453039432F76657274696365732E62696E504B0102140014000608080006459242F270F13306
310
0000000400000036000000000000000000000000006A1000006662782F41393744313232332D314333372D344442302D423137322D3138303743384144453039432F747269616E676C65732E62696E504B01021400140006080000064592420000000000000000000000003700000000000000000000000000C41000006662
310
782F41393744313232332D314333372D344442302D423137322D3138303743384144453039432F617474726962757465732E62696E504B0102140014000608080006459242D5987DFC8F000000410100003600000000000000000000000000191100006662782F41393744313232332D314333372D344442302D423137322D
310
3138303743384144453039432F6469726563746F72792E786D6C504B010214001400060808000645924252F64A8DFF000000A00100003B00000000000000000000000000FC1100006662782F41393744313232332D314333372D344442302D423137322D3138303743384144453039432F7265736F75726365732F636F7265
310
2E786D6C504B0506000000000E000E0080040000541300000000
  0
XRECORD
  5
17
102
{ACAD_REACTORS
330
12
102
}
330
12
100
AcDbXrecord
280
     1
270
     1
271
     1
  0
XRECORD
  5
16
102
{ACAD_REACTORS
330
12
102
}
330
12
100
AcDbXrecord
280
     1
270
     1
271
     1
  0
XRECORD
  5
18
102
{ACAD_REACTORS
330
12
102
}
330
12
100
AcDbXrecord
280
     1
270
     1
271
     1
  0
XRECORD
  5
15
102
{ACAD_REACTORS
330
12
102
}
330
12
100
AcDbXrecord
280
     1
270
     1
271
     1
  0
XRECORD
  5
688
102
{ACAD_REACTORS
330
22
102
}
330
22
100
AcDbXrecord
280
     1
102
MATERIAL
148
0.0
149
0.0
149
0.0
 93
        0
 94
      127
282
     0
 72
     0
 77
     0
171
     0
175
     0
179
     0
273
     0
  0
XRECORD
  5
24
102
{ACAD_REACTORS
330
22
102
}
330
22
100
AcDbXrecord
280
     1
270
     1
271
     1
  0
XRECORD
  5
23
102
{ACAD_REACTORS
330
22
102
}
330
22
100
AcDbXrecord
280
     1
270
     1
271
     1
  0
XRECORD
  5
27
102
{ACAD_REACTORS
330
22
102
}
330
22
100
AcDbXrecord
280
     1
270
     1
271
     1
  0
XRECORD
  5
26
102
{ACAD_REACTORS
330
22
102
}
330
22
100
AcDbXrecord
280
     1
270
     1
271
     1
  0
XRECORD
  5
28
102
{ACAD_REACTORS
330
22
102
}
330
22
100
AcDbXrecord
280
     1
270
     1
271
     1
  0
XRECORD
  5
25
102
{ACAD_REACTORS
330
22
102
}
330
22
100
AcDbXrecord
280
     1
270
     1
271
     1
  0
XRECORD
  5
683
102
{ACAD_REACTORS
330
682
102
}
330
682
100
AcDbXrecord
280
     1
102
ACAD_ROUNDTRIP_2012_MLEADER_STYLE
298
     1
  0
CELLSTYLEMAP
  5
681
102
{ACAD_REACTORS
330
680
102
}
330
680
100
AcDbCellStyleMap
 90
        3
300
CELLSTYLE
  1
TABLEFORMAT_BEGIN
 90
        5
170
     1
 91
        0
 92
    32768
 62
   257
 93
        1
300
CONTENTFORMAT
  1
CONTENTFORMAT_BEGIN
 90
        0
 91
        0
 92
      512
 93
        0
300

 40
0.0
140
1.0
 94
        5
 62
     0
340
55
144
0.25
309
CONTENTFORMAT_END
171
     0
 94
        0
309
TABLEFORMAT_END
  1
CELLSTYLE_BEGIN
 90
        1
 91
        1
300
_TITLE
309
CELLSTYLE_END
300
CELLSTYLE
  1
TABLEFORMAT_BEGIN
 90
        5
170
     1
 91
        0
 92
        0
 62
   257
 93
        1
300
CONTENTFORMAT
  1
CONTENTFORMAT_BEGIN
 90
        0
 91
        0
 92
      512
 93
        0
300

 40
0.0
140
1.0
 94
        5
 62
     0
340
55
144
0.18
309
CONTENTFORMAT_END
171
     0
 94
        0
309
TABLEFORMAT_END
  1
CELLSTYLE_BEGIN
 90
        2
 91
        1
300
_HEADER
309
CELLSTYLE_END
300
CELLSTYLE
  1
TABLEFORMAT_BEGIN
 90
        5
170
     1
 91
        0
 92
        0
 62
   257
 93
        1
300
CONTENTFORMAT
  1
CONTENTFORMAT_BEGIN
 90
        0
 91
        0
 92
      512
 93
        0
300

 40
0.0
140
1.0
 94
        2
 62
     0
340
55
144
0.18
309
CONTENTFORMAT_END
171
     0
 94
        0
309
TABLEFORMAT_END
  1
CELLSTYLE_BEGIN
 90
        3
 91
        2
300
_DATA
309
CELLSTYLE_END
  0
XRECORD
  5
6B9
102
{ACAD_REACTORS
330
680
102
}
330
680
100
AcDbXrecord
280
     1
102
ACAD_ROUNDTRIP_PRE2007_TABLESTYLE
 90
      512
 91
        0
  1

 92
      512
 93
        0
  2

 94
      512
 95
        0
  3

  0
XRECORD
  5
694
102
{ACAD_REACTORS
330
693
102
}
330
693
100
AcDbXrecord
280
     1
102
RTVSPropertyOp0
 70
     1
102
RTVSPropertyOp1
 70
     1
102
RTVSPropertyOp2
 70
     1
102
RTVSPropertyOp3
 70
     1
102
RTVSPropertyOp4
 70
     1
102
RTVSPropertyOp5
 70
     1
102
RTVSPropertyOp6
 70
     1
102
RTVSPropertyOp7
 70
     1
102
RTVSPropertyOp8
 70
     1
102
RTVSPropertyOp9
 70
     1
102
RTVSPropertyOp10
 70
     1
102
RTVSPropertyOp11
 70
     1
102
RTVSPropertyOp12
 70
     1
102
RTVSPropertyOp13
 70
     1
102
RTVSPropertyOp14
 70
     1
102
RTVSPropertyOp15
 70
     1
102
RTVSPropertyOp16
 70
     1
102
RTVSPropertyOp17
 70
     1
102
RTVSPropertyOp18
 70
     1
102
RTVSPropertyOp19
 70
     1
102
RTVSPropertyOp20
 70
     1
102
RTVSPropertyOp21
 70
     1
102
RTVSPropertyOp22
 70
     1
102
RTVSPropertyOp23
 70
     1
102
RTVSPropertyOp24
 70
     1
102
RTVSPropertyOp25
 70
     1
102
RTVSPropertyOp26
 70
     1
102
RTVSPropertyOp27
 70
     1
102
RTVSPropertyOp28
 70
     1
102
RTVSPropertyOp29
 70
     1
102
RTVSPropertyOp30
 70
     1
102
RTVSPropertyOp31
 70
     1
102
RTVSPropertyOp32
 70
     1
  0
XRECORD
  5
692
102
{ACAD_REACTORS
330
691
102
}
330
691
100
AcDbXrecord
280
     1
102
RTVSPropertyOp0
 70
     1
102
RTVSPropertyOp1
 70
     1
102
RTVSPropertyOp2
 70
     1
102
RTVSPropertyOp3
 70
     1
102
RTVSPropertyOp4
 70
     1
102
RTVSPropertyOp5
 70
     1
102
RTVSPropertyOp6
 70
     1
102
RTVSPropertyOp7
 70
     1
102
RTVSPropertyOp8
 70
     1
102
RTVSPropertyOp9
 70
     1
102
RTVSPropertyOp10
 70
     1
102
RTVSPropertyOp11
 70
     1
102
RTVSPropertyOp12
 70
     1
102
RTVSPropertyOp13
 70
     1
102
RTVSPropertyOp14
 70
     1
102
RTVSPropertyOp15
 70
     1
102
RTVSPropertyOp16
 70
     1
102
RTVSPropertyOp17
 70
     1
102
RTVSPropertyOp18
 70
     1
102
RTVSPropertyOp19
 70
     1
102
RTVSPropertyOp20
 70
     1
102
RTVSPropertyOp21
 70
     1
102
RTVSPropertyOp22
 70
     1
102
RTVSPropertyOp23
 70
     1
102
RTVSPropertyOp24
 70
     1
102
RTVSPropertyOp25
 70
     1
102
RTVSPropertyOp26
 70
     1
102
RTVSPropertyOp27
 70
     1
102
RTVSPropertyOp28
 70
     1
102
RTVSPropertyOp29
 70
     1
102
RTVSPropertyOp30
 70
     1
102
RTVSPropertyOp31
 70
     1
102
RTVSPropertyOp32
 70
     1
  0
XRECORD
  5
6A0
102
{ACAD_REACTORS
330
69F
102
}
330
69F
100
AcDbXrecord
280
     1
102
RTVSPropertyOp0
 70
     1
102
RTVSPropertyOp1
 70
     1
102
RTVSPropertyOp2
 70
     1
102
RTVSPropertyOp3
 70
     1
102
RTVSPropertyOp4
 70
     1
102
RTVSPropertyOp5
 70
     1
102
RTVSPropertyOp6
 70
     1
102
RTVSPropertyOp7
 70
     1
102
RTVSPropertyOp8
 70
     1
102
RTVSPropertyOp9
 70
     1
102
RTVSPropertyOp10
 70
     1
102
RTVSPropertyOp11
 70
     1
102
RTVSPropertyOp12
 70
     1
102
RTVSPropertyOp13
 70
     1
102
RTVSPropertyOp14
 70
     1
102
RTVSPropertyOp15
 70
     1
102
RTVSPropertyOp16
 70
     1
102
RTVSPropertyOp17
 70
     1
102
RTVSPropertyOp18
 70
     1
102
RTVSPropertyOp19
 70
     1
102
RTVSPropertyOp20
 70
     1
102
RTVSPropertyOp21
 70
     1
102
RTVSPropertyOp22
 70
     1
102
RTVSPropertyOp23
 70
     1
102
RTVSPropertyOp24
 70
     1
102
RTVSPropertyOp25
 70
     1
102
RTVSPropertyOp26
 70
     1
102
RTVSPropertyOp27
 70
     1
102
RTVSPropertyOp28
 70
     1
102
RTVSPropertyOp29
 70
     1
102
RTVSPropertyOp30
 70
     1
102
RTVSPropertyOp31
 70
     1
102
RTVSPropertyOp32
 70
     1
  0
XRECORD
  5
6A8
102
{ACAD_REACTORS
330
6A7
102
}
330
6A7
100
AcDbXrecord
280
     1
102
RTVSPropertyOp0
 70
     1
102
RTVSPropertyOp1
 70
     1
102
RTVSPropertyOp2
 70
     1
102
RTVSPropertyOp3
 70
     1
102
RTVSPropertyOp4
 70
     1
102
RTVSPropertyOp5
 70
     1
102
RTVSPropertyOp6
 70
     1
102
RTVSPropertyOp7
 70
     1
102
RTVSPropertyOp8
 70
     1
102
RTVSPropertyOp9
 70
     1
102
RTVSPropertyOp10
 70
     1
102
RTVSPropertyOp11
 70
     1
102
RTVSPropertyOp12
 70
     1
102
RTVSPropertyOp13
 70
     1
102
RTVSPropertyOp14
 70
     1
102
RTVSPropertyOp15
 70
     1
102
RTVSPropertyOp16
 70
     1
102
RTVSPropertyOp17
 70
     1
102
RTVSPropertyOp18
 70
     1
102
RTVSPropertyOp19
 70
     1
102
RTVSPropertyOp20
 70
     1
102
RTVSPropertyOp21
 70
     1
102
RTVSPropertyOp22
 70
     1
102
RTVSPropertyOp23
 70
     1
102
RTVSPropertyOp24
 70
     1
102
RTVSPropertyOp25
 70
     1
102
RTVSPropertyOp26
 70
     1
102
RTVSPropertyOp27
 70
     1
102
RTVSPropertyOp28
 70
     1
102
RTVSPropertyOp29
 70
     1
102
RTVSPropertyOp30
 70
     1
102
RTVSPropertyOp31
 70
     1
102
RTVSPropertyOp32
 70
     1
  0
XRECORD
  5
69A
102
{ACAD_REACTORS
330
699
102
}
330
699
100
AcDbXrecord
280
     1
102
RTVSPropertyOp0
 70
     1
102
RTVSPropertyOp1
 70
     1
102
RTVSPropertyOp2
 70
     1
102
RTVSPropertyOp3
 70
     1
102
RTVSPropertyOp4
 70
     1
102
RTVSPropertyOp5
 70
     1
102
RTVSPropertyOp6
 70
     1
102
RTVSPropertyOp7
 70
     1
102
RTVSPropertyOp8
 70
     1
102
RTVSPropertyOp9
 70
     1
102
RTVSPropertyOp10
 70
     1
102
RTVSPropertyOp11
 70
     1
102
RTVSPropertyOp12
 70
     1
102
RTVSPropertyOp13
 70
     1
102
RTVSPropertyOp14
 70
     1
102
RTVSPropertyOp15
 70
     1
102
RTVSPropertyOp16
 70
     1
102
RTVSPropertyOp17
 70
     1
102
RTVSPropertyOp18
 70
     1
102
RTVSPropertyOp19
 70
     1
102
RTVSPropertyOp20
 70
     1
102
RTVSPropertyOp21
 70
     1
102
RTVSPropertyOp22
 70
     1
102
RTVSPropertyOp23
 70
     1
102
RTVSPropertyOp24
 70
     1
102
RTVSPropertyOp25
 70
     1
102
RTVSPropertyOp26
 70
     1
102
RTVSPropertyOp27
 70
     1
102
RTVSPropertyOp28
 70
     1
102
RTVSPropertyOp29
 70
     1
102
RTVSPropertyOp30
 70
     1
102
RTVSPropertyOp31
 70
     1
102
RTVSPropertyOp32
 70
     1
  0
XRECORD
  5
69E
102
{ACAD_REACTORS
330
69D
102
}
330
69D
100
AcDbXrecord
280
     1
102
RTVSPropertyOp0
 70
     1
102
RTVSPropertyOp1
 70
     1
102
RTVSPropertyOp2
 70
     1
102
RTVSPropertyOp3
 70
     1
102
RTVSPropertyOp4
 70
     1
102
RTVSPropertyOp5
 70
     1
102
RTVSPropertyOp6
 70
     1
102
RTVSPropertyOp7
 70
     1
102
RTVSPropertyOp8
 70
     1
102
RTVSPropertyOp9
 70
     1
102
RTVSPropertyOp10
 70
     1
102
RTVSPropertyOp11
 70
     1
102
RTVSPropertyOp12
 70
     1
102
RTVSPropertyOp13
 70
     1
102
RTVSPropertyOp14
 70
     1
102
RTVSPropertyOp15
 70
     1
102
RTVSPropertyOp16
 70
     1
102
RTVSPropertyOp17
 70
     1
102
RTVSPropertyOp18
 70
     1
102
RTVSPropertyOp19
 70
     1
102
RTVSPropertyOp20
 70
     1
102
RTVSPropertyOp21
 70
     1
102
RTVSPropertyOp22
 70
     1
102
RTVSPropertyOp23
 70
     1
102
RTVSPropertyOp24
 70
     1
102
RTVSPropertyOp25
 70
     1
102
RTVSPropertyOp26
 70
     1
102
RTVSPropertyOp27
 70
     1
102
RTVSPropertyOp28
 70
     1
102
RTVSPropertyOp29
 70
     1
102
RTVSPropertyOp30
 70
     1
102
RTVSPropertyOp31
 70
     1
102
RTVSPropertyOp32
 70
     1
  0
XRECORD
  5
6B8
102
{ACAD_REACTORS
330
6B7
102
}
330
6B7
100
AcDbXrecord
280
     1
102
RTVSPropertyOp0
 70
     0
102
RTVSPropertyOp1
 70
     0
102
RTVSPropertyOp2
 70
     0
102
RTVSPropertyOp3
 70
     0
102
RTVSPropertyOp4
 70
     0
102
RTVSPropertyOp5
 70
     0
102
RTVSPropertyOp6
 70
     0
102
RTVSPropertyOp7
 70
     0
102
RTVSPropertyOp8
 70
     0
102
RTVSPropertyOp9
 70
     0
102
RTVSPropertyOp10
 70
     0
102
RTVSPropertyOp11
 70
     0
102
RTVSPropertyOp12
 70
     0
102
RTVSPropertyOp13
 70
     0
102
RTVSPropertyOp14
 70
     2
102
RTVSPropertyOp15
 70
     0
102
RTVSPropertyOp16
 70
     0
102
RTVSPropertyOp17
 70
     0
102
RTVSPropertyOp18
 70
     0
102
RTVSPropertyOp19
 70
     0
102
RTVSPropertyOp20
 70
     0
102
RTVSPropertyOp21
 70
     0
102
RTVSPropertyOp22
 70
     0
102
RTVSPropertyOp23
 70
     0
102
RTVSPropertyOp24
 70
     0
102
RTVSPropertyOp25
 70
     0
102
RTVSPropertyOp26
 70
     0
102
RTVSPropertyOp27
 70
     0
102
RTVSPropertyOp28
 70
     1
102
RTVSPropertyOp29
 70
     1
102
RTVSPropertyOp30
 70
     1
102
RTVSPropertyOp31
 70
     1
102
RTVSPropertyOp32
 70
     1
  0
XRECORD
  5
6A6
102
{ACAD_REACTORS
330
6A5
102
}
330
6A5
100
AcDbXrecord
280
     1
102
RTVSPropertyOp0
 70
     1
102
RTVSPropertyOp1
 70
     1
102
RTVSPropertyOp2
 70
     1
102
RTVSPropertyOp3
 70
     1
102
RTVSPropertyOp4
 70
     1
102
RTVSPropertyOp5
 70
     1
102
RTVSPropertyOp6
 70
     1
102
RTVSPropertyOp7
 70
     1
102
RTVSPropertyOp8
 70
     1
102
RTVSPropertyOp9
 70
     1
102
RTVSPropertyOp10
 70
     1
102
RTVSPropertyOp11
 70
     1
102
RTVSPropertyOp12
 70
     1
102
RTVSPropertyOp13
 70
     1
102
RTVSPropertyOp14
 70
     1
102
RTVSPropertyOp15
 70
     1
102
RTVSPropertyOp16
 70
     1
102
RTVSPropertyOp17
 70
     1
102
RTVSPropertyOp18
 70
     1
102
RTVSPropertyOp19
 70
     1
102
RTVSPropertyOp20
 70
     1
102
RTVSPropertyOp21
 70
     1
102
RTVSPropertyOp22
 70
     1
102
RTVSPropertyOp23
 70
     1
102
RTVSPropertyOp24
 70
     1
102
RTVSPropertyOp25
 70
     1
102
RTVSPropertyOp26
 70
     1
102
RTVSPropertyOp27
 70
     1
102
RTVSPropertyOp28
 70
     1
102
RTVSPropertyOp29
 70
     1
102
RTVSPropertyOp30
 70
     1
102
RTVSPropertyOp31
 70
     1
102
RTVSPropertyOp32
 70
     1
  0
XRECORD
  5
68A
102
{ACAD_REACTORS
330
689
102
}
330
689
100
AcDbXrecord
280
     1
102
RTVSPropertyOp0
 70
     1
102
RTVSPropertyOp1
 70
     1
102
RTVSPropertyOp2
 70
     1
102
RTVSPropertyOp3
 70
     1
102
RTVSPropertyOp4
 70
     1
102
RTVSPropertyOp5
 70
     1
102
RTVSPropertyOp6
 70
     1
102
RTVSPropertyOp7
 70
     1
102
RTVSPropertyOp8
 70
     1
102
RTVSPropertyOp9
 70
     1
102
RTVSPropertyOp10
 70
     1
102
RTVSPropertyOp11
 70
     1
102
RTVSPropertyOp12
 70
     1
102
RTVSPropertyOp13
 70
     1
102
RTVSPropertyOp14
 70
     1
102
RTVSPropertyOp15
 70
     1
102
RTVSPropertyOp16
 70
     1
102
RTVSPropertyOp17
 70
     1
102
RTVSPropertyOp18
 70
     1
102
RTVSPropertyOp19
 70
     1
102
RTVSPropertyOp20
 70
     1
102
RTVSPropertyOp21
 70
     1
102
RTVSPropertyOp22
 70
     1
102
RTVSPropertyOp23
 70
     1
102
RTVSPropertyOp24
 70
     1
102
RTVSPropertyOp25
 70
     1
102
RTVSPropertyOp26
 70
     1
102
RTVSPropertyOp27
 70
     1
102
RTVSPropertyOp28
 70
     1
102
RTVSPropertyOp29
 70
     1
102
RTVSPropertyOp30
 70
     1
102
RTVSPropertyOp31
 70
     1
102
RTVSPropertyOp32
 70
     1
  0
XRECORD
  5
68C
102
{ACAD_REACTORS
330
68B
102
}
330
68B
100
AcDbXrecord
280
     1
102
RTVSPropertyOp0
 70
     1
102
RTVSPropertyOp1
 70
     1
102
RTVSPropertyOp2
 70
     1
102
RTVSPropertyOp3
 70
     1
102
RTVSPropertyOp4
 70
     1
102
RTVSPropertyOp5
 70
     1
102
RTVSPropertyOp6
 70
     1
102
RTVSPropertyOp7
 70
     1
102
RTVSPropertyOp8
 70
     1
102
RTVSPropertyOp9
 70
     1
102
RTVSPropertyOp10
 70
     1
102
RTVSPropertyOp11
 70
     1
102
RTVSPropertyOp12
 70
     1
102
RTVSPropertyOp13
 70
     1
102
RTVSPropertyOp14
 70
     1
102
RTVSPropertyOp15
 70
     1
102
RTVSPropertyOp16
 70
     1
102
RTVSPropertyOp17
 70
     1
102
RTVSPropertyOp18
 70
     1
102
RTVSPropertyOp19
 70
     1
102
RTVSPropertyOp20
 70
     1
102
RTVSPropertyOp21
 70
     1
102
RTVSPropertyOp22
 70
     1
102
RTVSPropertyOp23
 70
     1
102
RTVSPropertyOp24
 70
     1
102
RTVSPropertyOp25
 70
     1
102
RTVSPropertyOp26
 70
     1
102
RTVSPropertyOp27
 70
     1
102
RTVSPropertyOp28
 70
     1
102
RTVSPropertyOp29
 70
     1
102
RTVSPropertyOp30
 70
     1
102
RTVSPropertyOp31
 70
     1
102
RTVSPropertyOp32
 70
     1
  0
XRECORD
  5
68E
102
{ACAD_REACTORS
330
68D
102
}
330
68D
100
AcDbXrecord
280
     1
102
RTVSPropertyOp0
 70
     1
102
RTVSPropertyOp1
 70
     1
102
RTVSPropertyOp2
 70
     1
102
RTVSPropertyOp3
 70
     1
102
RTVSPropertyOp4
 70
     1
102
RTVSPropertyOp5
 70
     1
102
RTVSPropertyOp6
 70
     1
102
RTVSPropertyOp7
 70
     1
102
RTVSPropertyOp8
 70
     1
102
RTVSPropertyOp9
 70
     1
102
RTVSPropertyOp10
 70
     1
102
RTVSPropertyOp11
 70
     1
102
RTVSPropertyOp12
 70
     1
102
RTVSPropertyOp13
 70
     1
102
RTVSPropertyOp14
 70
     1
102
RTVSPropertyOp15
 70
     1
102
RTVSPropertyOp16
 70
     1
102
RTVSPropertyOp17
 70
     1
102
RTVSPropertyOp18
 70
     1
102
RTVSPropertyOp19
 70
     1
102
RTVSPropertyOp20
 70
     1
102
RTVSPropertyOp21
 70
     1
102
RTVSPropertyOp22
 70
     1
102
RTVSPropertyOp23
 70
     1
102
RTVSPropertyOp24
 70
     1
102
RTVSPropertyOp25
 70
     1
102
RTVSPropertyOp26
 70
     1
102
RTVSPropertyOp27
 70
     1
102
RTVSPropertyOp28
 70
     1
102
RTVSPropertyOp29
 70
     1
102
RTVSPropertyOp30
 70
     1
102
RTVSPropertyOp31
 70
     1
102
RTVSPropertyOp32
 70
     1
  0
XRECORD
  5
690
102
{ACAD_REACTORS
330
68F
102
}
330
68F
100
AcDbXrecord
280
     1
102
RTVSPropertyOp0
 70
     1
102
RTVSPropertyOp1
 70
     1
102
RTVSPropertyOp2
 70
     1
102
RTVSPropertyOp3
 70
     1
102
RTVSPropertyOp4
 70
     1
102
RTVSPropertyOp5
 70
     1
102
RTVSPropertyOp6
 70
     1
102
RTVSPropertyOp7
 70
     1
102
RTVSPropertyOp8
 70
     1
102
RTVSPropertyOp9
 70
     1
102
RTVSPropertyOp10
 70
     1
102
RTVSPropertyOp11
 70
     1
102
RTVSPropertyOp12
 70
     1
102
RTVSPropertyOp13
 70
     1
102
RTVSPropertyOp14
 70
     1
102
RTVSPropertyOp15
 70
     1
102
RTVSPropertyOp16
 70
     1
102
RTVSPropertyOp17
 70
     1
102
RTVSPropertyOp18
 70
     1
102
RTVSPropertyOp19
 70
     1
102
RTVSPropertyOp20
 70
     1
102
RTVSPropertyOp21
 70
     1
102
RTVSPropertyOp22
 70
     1
102
RTVSPropertyOp23
 70
     1
102
RTVSPropertyOp24
 70
     1
102
RTVSPropertyOp25
 70
     1
102
RTVSPropertyOp26
 70
     1
102
RTVSPropertyOp27
 70
     1
102
RTVSPropertyOp28
 70
     1
102
RTVSPropertyOp29
 70
     1
102
RTVSPropertyOp30
 70
     1
102
RTVSPropertyOp31
 70
     1
102
RTVSPropertyOp32
 70
     1
  0
XRECORD
  5
698
102
{ACAD_REACTORS
330
697
102
}
330
697
100
AcDbXrecord
280
     1
102
RTVSPropertyOp0
 70
     1
102
RTVSPropertyOp1
 70
     1
102
RTVSPropertyOp2
 70
     1
102
RTVSPropertyOp3
 70
     1
102
RTVSPropertyOp4
 70
     1
102
RTVSPropertyOp5
 70
     1
102
RTVSPropertyOp6
 70
     1
102
RTVSPropertyOp7
 70
     1
102
RTVSPropertyOp8
 70
     1
102
RTVSPropertyOp9
 70
     1
102
RTVSPropertyOp10
 70
     1
102
RTVSPropertyOp11
 70
     1
102
RTVSPropertyOp12
 70
     1
102
RTVSPropertyOp13
 70
     1
102
RTVSPropertyOp14
 70
     1
102
RTVSPropertyOp15
 70
     1
102
RTVSPropertyOp16
 70
     1
102
RTVSPropertyOp17
 70
     1
102
RTVSPropertyOp18
 70
     1
102
RTVSPropertyOp19
 70
     1
102
RTVSPropertyOp20
 70
     1
102
RTVSPropertyOp21
 70
     1
102
RTVSPropertyOp22
 70
     1
102
RTVSPropertyOp23
 70
     1
102
RTVSPropertyOp24
 70
     1
102
RTVSPropertyOp25
 70
     1
102
RTVSPropertyOp26
 70
     1
102
RTVSPropertyOp27
 70
     1
102
RTVSPropertyOp28
 70
     1
102
RTVSPropertyOp29
 70
     1
102
RTVSPropertyOp30
 70
     1
102
RTVSPropertyOp31
 70
     1
102
RTVSPropertyOp32
 70
     1
  0
XRECORD
  5
6B4
102
{ACAD_REACTORS
330
6B3
102
}
330
6B3
100
AcDbXrecord
280
     1
102
RTVSPropertyOp0
 70
     0
102
RTVSPropertyOp1
 70
     0
102
RTVSPropertyOp2
 70
     0
102
RTVSPropertyOp3
 70
     0
102
RTVSPropertyOp4
 70
     0
102
RTVSPropertyOp5
 70
     0
102
RTVSPropertyOp6
 70
     0
102
RTVSPropertyOp7
 70
     0
102
RTVSPropertyOp8
 70
     0
102
RTVSPropertyOp9
 70
     0
102
RTVSPropertyOp10
 70
     0
102
RTVSPropertyOp11
 70
     0
102
RTVSPropertyOp12
 70
     0
102
RTVSPropertyOp13
 70
     0
102
RTVSPropertyOp14
 70
     2
102
RTVSPropertyOp15
 70
     0
102
RTVSPropertyOp16
 70
     0
102
RTVSPropertyOp17
 70
     0
102
RTVSPropertyOp18
 70
     0
102
RTVSPropertyOp19
 70
     0
102
RTVSPropertyOp20
 70
     0
102
RTVSPropertyOp21
 70
     0
102
RTVSPropertyOp22
 70
     0
102
RTVSPropertyOp23
 70
     0
102
RTVSPropertyOp24
 70
     0
102
RTVSPropertyOp25
 70
     0
102
RTVSPropertyOp26
 70
     0
102
RTVSPropertyOp27
 70
     0
102
RTVSPropertyOp28
 70
     1
102
RTVSPropertyOp29
 70
     1
102
RTVSPropertyOp30
 70
     1
102
RTVSPropertyOp31
 70
     1
102
RTVSPropertyOp32
 70
     1
  0
XRECORD
  5
6A4
102
{ACAD_REACTORS
330
6A3
102
}
330
6A3
100
AcDbXrecord
280
     1
102
RTVSPropertyOp0
 70
     1
102
RTVSPropertyOp1
 70
     1
102
RTVSPropertyOp2
 70
     1
102
RTVSPropertyOp3
 70
     1
102
RTVSPropertyOp4
 70
     1
102
RTVSPropertyOp5
 70
     1
102
RTVSPropertyOp6
 70
     1
102
RTVSPropertyOp7
 70
     1
102
RTVSPropertyOp8
 70
     1
102
RTVSPropertyOp9
 70
     1
102
RTVSPropertyOp10
 70
     1
102
RTVSPropertyOp11
 70
     1
102
RTVSPropertyOp12
 70
     1
102
RTVSPropertyOp13
 70
     1
102
RTVSPropertyOp14
 70
     1
102
RTVSPropertyOp15
 70
     1
102
RTVSPropertyOp16
 70
     1
102
RTVSPropertyOp17
 70
     1
102
RTVSPropertyOp18
 70
     1
102
RTVSPropertyOp19
 70
     1
102
RTVSPropertyOp20
 70
     1
102
RTVSPropertyOp21
 70
     1
102
RTVSPropertyOp22
 70
     1
102
RTVSPropertyOp23
 70
     1
102
RTVSPropertyOp24
 70
     1
102
RTVSPropertyOp25
 70
     1
102
RTVSPropertyOp26
 70
     1
102
RTVSPropertyOp27
 70
     1
102
RTVSPropertyOp28
 70
     1
102
RTVSPropertyOp29
 70
     1
102
RTVSPropertyOp30
 70
     1
102
RTVSPropertyOp31
 70
     1
102
RTVSPropertyOp32
 70
     1
  0
XRECORD
  5
6B6
102
{ACAD_REACTORS
330
6B5
102
}
330
6B5
100
AcDbXrecord
280
     1
102
RTVSPropertyOp0
 70
     0
102
RTVSPropertyOp1
 70
     0
102
RTVSPropertyOp2
 70
     0
102
RTVSPropertyOp3
 70
     0
102
RTVSPropertyOp4
 70
     0
102
RTVSPropertyOp5
 70
     0
102
RTVSPropertyOp6
 70
     0
102
RTVSPropertyOp7
 70
     0
102
RTVSPropertyOp8
 70
     0
102
RTVSPropertyOp9
 70
     0
102
RTVSPropertyOp10
 70
     0
102
RTVSPropertyOp11
 70
     0
102
RTVSPropertyOp12
 70
     0
102
RTVSPropertyOp13
 70
     0
102
RTVSPropertyOp14
 70
     2
102
RTVSPropertyOp15
 70
     0
102
RTVSPropertyOp16
 70
     0
102
RTVSPropertyOp17
 70
     0
102
RTVSPropertyOp18
 70
     0
102
RTVSPropertyOp19
 70
     0
102
RTVSPropertyOp20
 70
     0
102
RTVSPropertyOp21
 70
     0
102
RTVSPropertyOp22
 70
     0
102
RTVSPropertyOp23
 70
     0
102
RTVSPropertyOp24
 70
     0
102
RTVSPropertyOp25
 70
     0
102
RTVSPropertyOp26
 70
     0
102
RTVSPropertyOp27
 70
     0
102
RTVSPropertyOp28
 70
     1
102
RTVSPropertyOp29
 70
     1
102
RTVSPropertyOp30
 70
     1
102
RTVSPropertyOp31
 70
     1
102
RTVSPropertyOp32
 70
     1
  0
XRECORD
  5
69C
102
{ACAD_REACTORS
330
69B
102
}
330
69B
100
AcDbXrecord
280
     1
102
RTVSPropertyOp0
 70
     1
102
RTVSPropertyOp1
 70
     1
102
RTVSPropertyOp2
 70
     1
102
RTVSPropertyOp3
 70
     1
102
RTVSPropertyOp4
 70
     1
102
RTVSPropertyOp5
 70
     1
102
RTVSPropertyOp6
 70
     1
102
RTVSPropertyOp7
 70
     1
102
RTVSPropertyOp8
 70
     1
102
RTVSPropertyOp9
 70
     1
102
RTVSPropertyOp10
 70
     1
102
RTVSPropertyOp11
 70
     1
102
RTVSPropertyOp12
 70
     1
102
RTVSPropertyOp13
 70
     1
102
RTVSPropertyOp14
 70
     1
102
RTVSPropertyOp15
 70
     1
102
RTVSPropertyOp16
 70
     1
102
RTVSPropertyOp17
 70
     1
102
RTVSPropertyOp18
 70
     1
102
RTVSPropertyOp19
 70
     1
102
RTVSPropertyOp20
 70
     1
102
RTVSPropertyOp21
 70
     1
102
RTVSPropertyOp22
 70
     1
102
RTVSPropertyOp23
 70
     1
102
RTVSPropertyOp24
 70
     1
102
RTVSPropertyOp25
 70
     1
102
RTVSPropertyOp26
 70
     1
102
RTVSPropertyOp27
 70
     1
102
RTVSPropertyOp28
 70
     1
102
RTVSPropertyOp29
 70
     1
102
RTVSPropertyOp30
 70
     1
102
RTVSPropertyOp31
 70
     1
102
RTVSPropertyOp32
 70
     1
  0
XRECORD
  5
6B2
102
{ACAD_REACTORS
330
6B1
102
}
330
6B1
100
AcDbXrecord
280
     1
102
RTVSPropertyOp0
 70
     1
102
RTVSPropertyOp1
 70
     1
102
RTVSPropertyOp2
 70
     1
102
RTVSPropertyOp3
 70
     1
102
RTVSPropertyOp4
 70
     1
102
RTVSPropertyOp5
 70
     1
102
RTVSPropertyOp6
 70
     1
102
RTVSPropertyOp7
 70
     1
102
RTVSPropertyOp8
 70
     1
102
RTVSPropertyOp9
 70
     1
102
RTVSPropertyOp10
 70
     1
102
RTVSPropertyOp11
 70
     1
102
RTVSPropertyOp12
 70
     1
102
RTVSPropertyOp13
 70
     1
102
RTVSPropertyOp14
 70
     1
102
RTVSPropertyOp15
 70
     1
102
RTVSPropertyOp16
 70
     1
102
RTVSPropertyOp17
 70
     1
102
RTVSPropertyOp18
 70
     1
102
RTVSPropertyOp19
 70
     1
102
RTVSPropertyOp20
 70
     1
102
RTVSPropertyOp21
 70
     1
102
RTVSPropertyOp22
 70
     1
102
RTVSPropertyOp23
 70
     1
102
RTVSPropertyOp24
 70
     1
102
RTVSPropertyOp25
 70
     1
102
RTVSPropertyOp26
 70
     1
102
RTVSPropertyOp27
 70
     1
102
RTVSPropertyOp28
 70
     1
102
RTVSPropertyOp29
 70
     1
102
RTVSPropertyOp30
 70
     1
102
RTVSPropertyOp31
 70
     1
102
RTVSPropertyOp32
 70
     1
  0
XRECORD
  5
6B0
102
{ACAD_REACTORS
330
6AF
102
}
330
6AF
100
AcDbXrecord
280
     1
102
RTVSPropertyOp0
 70
     1
102
RTVSPropertyOp1
 70
     1
102
RTVSPropertyOp2
 70
     1
102
RTVSPropertyOp3
 70
     1
102
RTVSPropertyOp4
 70
     1
102
RTVSPropertyOp5
 70
     1
102
RTVSPropertyOp6
 70
     1
102
RTVSPropertyOp7
 70
     1
102
RTVSPropertyOp8
 70
     1
102
RTVSPropertyOp9
 70
     1
102
RTVSPropertyOp10
 70
     1
102
RTVSPropertyOp11
 70
     1
102
RTVSPropertyOp12
 70
     1
102
RTVSPropertyOp13
 70
     1
102
RTVSPropertyOp14
 70
     1
102
RTVSPropertyOp15
 70
     1
102
RTVSPropertyOp16
 70
     1
102
RTVSPropertyOp17
 70
     1
102
RTVSPropertyOp18
 70
     1
102
RTVSPropertyOp19
 70
     1
102
RTVSPropertyOp20
 70
     1
102
RTVSPropertyOp21
 70
     1
102
RTVSPropertyOp22
 70
     1
102
RTVSPropertyOp23
 70
     1
102
RTVSPropertyOp24
 70
     1
102
RTVSPropertyOp25
 70
     1
102
RTVSPropertyOp26
 70
     1
102
RTVSPropertyOp27
 70
     1
102
RTVSPropertyOp28
 70
     1
102
RTVSPropertyOp29
 70
     1
102
RTVSPropertyOp30
 70
     1
102
RTVSPropertyOp31
 70
     1
102
RTVSPropertyOp32
 70
     1
  0
XRECORD
  5
6AA
102
{ACAD_REACTORS
330
6A9
102
}
330
6A9
100
AcDbXrecord
280
     1
102
RTVSPropertyOp0
 70
     1
102
RTVSPropertyOp1
 70
     1
102
RTVSPropertyOp2
 70
     1
102
RTVSPropertyOp3
 70
     1
102
RTVSPropertyOp4
 70
     1
102
RTVSPropertyOp5
 70
     1
102
RTVSPropertyOp6
 70
     1
102
RTVSPropertyOp7
 70
     1
102
RTVSPropertyOp8
 70
     1
102
RTVSPropertyOp9
 70
     1
102
RTVSPropertyOp10
 70
     1
102
RTVSPropertyOp11
 70
     1
102
RTVSPropertyOp12
 70
     1
102
RTVSPropertyOp13
 70
     1
102
RTVSPropertyOp14
 70
     1
102
RTVSPropertyOp15
 70
     1
102
RTVSPropertyOp16
 70
     1
102
RTVSPropertyOp17
 70
     1
102
RTVSPropertyOp18
 70
     1
102
RTVSPropertyOp19
 70
     1
102
RTVSPropertyOp20
 70
     1
102
RTVSPropertyOp21
 70
     1
102
RTVSPropertyOp22
 70
     1
102
RTVSPropertyOp23
 70
     1
102
RTVSPropertyOp24
 70
     1
102
RTVSPropertyOp25
 70
     1
102
RTVSPropertyOp26
 70
     1
102
RTVSPropertyOp27
 70
     1
102
RTVSPropertyOp28
 70
     1
102
RTVSPropertyOp29
 70
     1
102
RTVSPropertyOp30
 70
     1
102
RTVSPropertyOp31
 70
     1
102
RTVSPropertyOp32
 70
     1
  0
XRECORD
  5
6AC
102
{ACAD_REACTORS
330
6AB
102
}
330
6AB
100
AcDbXrecord
280
     1
102
RTVSPropertyOp0
 70
     1
102
RTVSPropertyOp1
 70
     1
102
RTVSPropertyOp2
 70
     1
102
RTVSPropertyOp3
 70
     1
102
RTVSPropertyOp4
 70
     1
102
RTVSPropertyOp5
 70
     1
102
RTVSPropertyOp6
 70
     1
102
RTVSPropertyOp7
 70
     1
102
RTVSPropertyOp8
 70
     1
102
RTVSPropertyOp9
 70
     1
102
RTVSPropertyOp10
 70
     1
102
RTVSPropertyOp11
 70
     1
102
RTVSPropertyOp12
 70
     1
102
RTVSPropertyOp13
 70
     1
102
RTVSPropertyOp14
 70
     1
102
RTVSPropertyOp15
 70
     1
102
RTVSPropertyOp16
 70
     1
102
RTVSPropertyOp17
 70
     1
102
RTVSPropertyOp18
 70
     1
102
RTVSPropertyOp19
 70
     1
102
RTVSPropertyOp20
 70
     1
102
RTVSPropertyOp21
 70
     1
102
RTVSPropertyOp22
 70
     1
102
RTVSPropertyOp23
 70
     1
102
RTVSPropertyOp24
 70
     1
102
RTVSPropertyOp25
 70
     1
102
RTVSPropertyOp26
 70
     1
102
RTVSPropertyOp27
 70
     1
102
RTVSPropertyOp28
 70
     1
102
RTVSPropertyOp29
 70
     1
102
RTVSPropertyOp30
 70
     1
102
RTVSPropertyOp31
 70
     1
102
RTVSPropertyOp32
 70
     1
  0
XRECORD
  5
6A2
102
{ACAD_REACTORS
330
6A1
102
}
330
6A1
100
AcDbXrecord
280
     1
102
RTVSPropertyOp0
 70
     1
102
RTVSPropertyOp1
 70
     1
102
RTVSPropertyOp2
 70
     1
102
RTVSPropertyOp3
 70
     1
102
RTVSPropertyOp4
 70
     1
102
RTVSPropertyOp5
 70
     1
102
RTVSPropertyOp6
 70
     1
102
RTVSPropertyOp7
 70
     1
102
RTVSPropertyOp8
 70
     1
102
RTVSPropertyOp9
 70
     1
102
RTVSPropertyOp10
 70
     1
102
RTVSPropertyOp11
 70
     1
102
RTVSPropertyOp12
 70
     1
102
RTVSPropertyOp13
 70
     1
102
RTVSPropertyOp14
 70
     1
102
RTVSPropertyOp15
 70
     1
102
RTVSPropertyOp16
 70
     1
102
RTVSPropertyOp17
 70
     1
102
RTVSPropertyOp18
 70
     1
102
RTVSPropertyOp19
 70
     1
102
RTVSPropertyOp20
 70
     1
102
RTVSPropertyOp21
 70
     1
102
RTVSPropertyOp22
 70
     1
102
RTVSPropertyOp23
 70
     1
102
RTVSPropertyOp24
 70
     1
102
RTVSPropertyOp25
 70
     1
102
RTVSPropertyOp26
 70
     1
102
RTVSPropertyOp27
 70
     1
102
RTVSPropertyOp28
 70
     1
102
RTVSPropertyOp29
 70
     1
102
RTVSPropertyOp30
 70
     1
102
RTVSPropertyOp31
 70
     1
102
RTVSPropertyOp32
 70
     1
  0
XRECORD
  5
696
102
{ACAD_REACTORS
330
695
102
}
330
695
100
AcDbXrecord
280
     1
102
RTVSPropertyOp0
 70
     1
102
RTVSPropertyOp1
 70
     1
102
RTVSPropertyOp2
 70
     1
102
RTVSPropertyOp3
 70
     1
102
RTVSPropertyOp4
 70
     1
102
RTVSPropertyOp5
 70
     1
102
RTVSPropertyOp6
 70
     1
102
RTVSPropertyOp7
 70
     1
102
RTVSPropertyOp8
 70
     1
102
RTVSPropertyOp9
 70
     1
102
RTVSPropertyOp10
 70
     1
102
RTVSPropertyOp11
 70
     1
102
RTVSPropertyOp12
 70
     1
102
RTVSPropertyOp13
 70
     1
102
RTVSPropertyOp14
 70
     1
102
RTVSPropertyOp15
 70
     1
102
RTVSPropertyOp16
 70
     1
102
RTVSPropertyOp17
 70
     1
102
RTVSPropertyOp18
 70
     1
102
RTVSPropertyOp19
 70
     1
102
RTVSPropertyOp20
 70
     1
102
RTVSPropertyOp21
 70
     1
102
RTVSPropertyOp22
 70
     1
102
RTVSPropertyOp23
 70
     1
102
RTVSPropertyOp24
 70
     1
102
RTVSPropertyOp25
 70
     1
102
RTVSPropertyOp26
 70
     1
102
RTVSPropertyOp27
 70
     1
102
RTVSPropertyOp28
 70
     1
102
RTVSPropertyOp29
 70
     1
102
RTVSPropertyOp30
 70
     1
102
RTVSPropertyOp31
 70
     1
102
RTVSPropertyOp32
 70
     1
  0
XRECORD
  5
6AE
102
{ACAD_REACTORS
330
6AD
102
}
330
6AD
100
AcDbXrecord
280
     1
102
RTVSPropertyOp0
 70
     1
102
RTVSPropertyOp1
 70
     1
102
RTVSPropertyOp2
 70
     1
102
RTVSPropertyOp3
 70
     1
102
RTVSPropertyOp4
 70
     1
102
RTVSPropertyOp5
 70
     1
102
RTVSPropertyOp6
 70
     1
102
RTVSPropertyOp7
 70
     1
102
RTVSPropertyOp8
 70
     1
102
RTVSPropertyOp9
 70
     1
102
RTVSPropertyOp10
 70
     1
102
RTVSPropertyOp11
 70
     1
102
RTVSPropertyOp12
 70
     1
102
RTVSPropertyOp13
 70
     1
102
RTVSPropertyOp14
 70
     1
102
RTVSPropertyOp15
 70
     1
102
RTVSPropertyOp16
 70
     1
102
RTVSPropertyOp17
 70
     1
102
RTVSPropertyOp18
 70
     1
102
RTVSPropertyOp19
 70
     1
102
RTVSPropertyOp20
 70
     1
102
RTVSPropertyOp21
 70
     1
102
RTVSPropertyOp22
 70
     1
102
RTVSPropertyOp23
 70
     1
102
RTVSPropertyOp24
 70
     1
102
RTVSPropertyOp25
 70
     1
102
RTVSPropertyOp26
 70
     1
102
RTVSPropertyOp27
 70
     1
102
RTVSPropertyOp28
 70
     1
102
RTVSPropertyOp29
 70
     1
102
RTVSPropertyOp30
 70
     1
102
RTVSPropertyOp31
 70
     1
102
RTVSPropertyOp32
 70
     1
  0
ENDSEC
  0
EOF
